Oops, an error
Loading. Please wait.

Good N Ready bass

version 2
version 2

Whole song

Interactive

3,302 views 1 this week
3 commentsread comments
1 2 3 4 5
x 5
add to favorites
×
Save as Personal and add changes to this tab that will be seen only by you. Learn more ›
×
You can save this tab as Personal to edit and correct it or add notes. All changes will be seen only by you. Learn more »
launch autoscroll
font size
0
reset
guitar tuner
edit
Autoscroll
slow
fast
+/-
esc
set tempo
stop
Author
Difficulty
The other tab wasn't too terribly correct, so I tabbed it out.

Also, I don't know if they use half-step tuning on this album, so I'm assuming that they do.

NOTE:
> Means strum a lot.

Chorus

Gb|-----------6----------------------------1-------------------|
Db|----------------4-2-1-2-1---------4-2-4--4-2-4--------------|
Ab|-4>-4-2-4-4-4-4----------4-2-0>-0--------------4----------4-|
Eb|-------------------------------------------------4>-5>-7>---|

Verse
Gb|-----------------|         Gb|-----------------|
Db|-------4-6-4-----|         Db|-4---------------|
Ab|-4-6-7-------7-6-| x3 then Ab|---7-6-7-6-4-----|
Eb|-----------------|         Eb|-------------7-5-|

Gb|------------------|         Gb|---------------------------------|
Db|-7-6-4---4--------|         Db|-----------4-----7-6-4---4-------|
Ab|-------7---7-6-7--| x2 then Ab|-------4-7---7-6-------7---7-6-7-|
Eb|------------------|         Eb|-4-5-7---------------------------|

Pre-chorus

(Play the part in brackets for the first few times)
Gb|-----------------------------------|
Db|---76~--76~--76~--76~-7-6-7-6-7-6/-|
Ab|-----------------------------------|
Eb|--[54~--54~--54~--54~-5-4-5-4-5-4]-|

Bridge
Gb|-----9-11-13-11-9-----9-11-13-11-9------9-11-13-11-9-11~-11-9-8-|
Db|-11~-------------------------------11~--------------------------|
Ab|------------------12~-----------------------------then repeat---|
Eb|----------------------------------------------------------------|





            
            
Suggest correction
Creating personal tab
Creating personal tab
You can edit any tab online and save it as your Personal.

You can edit, replace or remove any tab part or add personal notes – all changes will be seen only by you.

Personal tabs can be accessed anytime from any device, even offline.
Learn more »
comments
print report bad tab
3 comments total.
0 reply
chrisjenks 2,712 Jul 22, 2008 07:40 AM

there is an ending riff too. something like this:

(3:50)

Gb|-------1------1------1------|
Db|-----24-4---24-4---24-4-----|
Ab|-4-4-----4-4----4-4----4~---|
Eb|----------------------------|

Apart from that it's a great tab!

0 reply
Mr. Thingy 260 Aug 06, 2008 12:53 AM

Oh shit, I forgot to add that! I think it's an octave higher though. I'd have to listen to it (which I'm too tired/lazy to do at the moment).

+1 reply
Peedunkey 178 Jan 06, 2013 12:25 PM

In the first part of the verse, instead of:

Gb|-----------------|
Db|-------4-6-4-----|
Ab|-4-6-7-------7-6-| x3
Eb|-----------------|

I'm pretty certain it's:
Gb|-----------------|
Db|-------4-6-4-----|
Ab|---4-7-------7-4-| x3
Eb|-7---------------|

Although I could be wrong...

Otherwise, great!!

guest
You may want to rate the tab now too:
select rating
Wanna post a correction for this tab? Suggest correction