Oops, an error
Loading. Please wait.

Shadow Of The Dead bass

5,028 views 3 this week
1 commentread comment
1 2 3 4 5
1 last vote to show rating
add to favorites
×
Save as Personal and add changes to this tab that will be seen only by you. Learn more ›
×
You can save this tab as Personal to edit and correct it or add notes. All changes will be seen only by you. Learn more »
launch autoscroll
font size
0
reset
guitar tuner
edit
Autoscroll
slow
fast
+/-
esc
set tempo
stop
Author
Difficulty
- Anti-Flag - Shadow Of The Dead
- Tabbed by: Pacu, bassist from a brazilian punk rock band called PunkAss.
- Im lazy to tune my bass on Eb so I made this tab just in standart. But You can tune 
bass on EbAbDbGb if you want.

_________________

Intro [2x]
G|------------------------------------------|
D|--1-2-1-----1-2-1-----1-2-1--------23-4-4-|
A|-4-4-4-4-0-4-4-4-4-0-4-4-4-4-0-2-2--------|
E|------------------------------------------|

Verse
G|------------------------------------------|
D|--1-2-1-----1-2-1-----1-2-1--------23-4-4-|
A|-4-4-4-4-0-4-4-4-4-0-4-4-4-4-0-2-2--------|
E|------------------------------------------|

G|------------------------------------------|-------|
D|--1-2-1-----1-2-1-----1-2-1--------23-4-4-|-------|
A|-4-4-4-4-0-4-4-4-4-0-4-4-4-4-0-2-2--------|-44444-|
E|------------------------------------------|-------|

Chorus
G|---------------------|---------------------|
D|---------------------|------------1-2-1----|
A|-----------4444------|-----------4-4-4-4-0-|
E|-0000-4444------2222-|-0000-4444-----------|

G|---------------------|-----------|
D|---------------------|-----------|
A|-----------4444------|-----------|
E|-0000-4444------2222-|-0000-4444-|

Intro [1x]
G|------------------------------------------|
D|--1-2-1-----1-2-1-----1-2-1--------23-4-4-|
A|-4-4-4-4-0-4-4-4-4-0-4-4-4-4-0-2-2--------|
E|------------------------------------------|

Verse
G|------------------------------------------|
D|--1-2-1-----1-2-1-----1-2-1--------23-4-4-|
A|-4-4-4-4-0-4-4-4-4-0-4-4-4-4-0-2-2--------|
E|------------------------------------------|

G|------------------------------------------|-------|
D|--1-2-1-----1-2-1-----1-2-1--------23-4-4-|-------|
A|-4-4-4-4-0-4-4-4-4-0-4-4-4-4-0-2-2--------|-44444-|
E|------------------------------------------|-------|

Chorus
G|---------------------|---------------------|
D|---------------------|------------1-2-1----|
A|-----------4444------|-----------4-4-4-4-0-|
E|-0000-4444------2222-|-0000-4444-----------|

G|---------------------|-----------|
D|---------------------|-----------|
A|-----------4444------|-----------|
E|-0000-4444------2222-|-0000-4444-|

Bridge I [“I cant believe my own eyes”]
G|-------------|------|---------------------------------|--------------|
D|-------------|------|---------------------------------|--1-2-1-------|
A|-4~----0-----|-[3x]-|-4~----0000----------------------|-4-4-4-4-0-4\-|
E|----0~--2-4~-|------|----0~-----2222-4444444444444444-|--------------|

Guitar Solo
G|------------------------------------------|------|-------|
D|--1-2-1-----1-2-1-----1-2-1--------23-4-4-|------|-------|
A|-4-4-4-4-0-4-4-4-4-0-4-4-4-4-0-2-2--------|-[2x]-|-44444-|
E|------------------------------------------|------|-------|

Bridge II [“we will be free in the cold of the shadow of the dead]
G|-------------------|
D|-------------------|
A|-------4~----------|
E|-0~-4~----2~-0~-0~-|

Chorus
G|---------------------|---------------------|
D|---------------------|------------1-2-1----|
A|-----------4444------|-----------4-4-4-4-0-|
E|-0000-4444------2222-|-0000-4444-----------|

G|------------------|----------|
D|------------------|----------|
A|-------4-4-4-4----|----------|
E|-0~-4~---------2~-|-0~-12/2~-|

Ending
G|-------------------------|------|-----|
D|-------------------1-----|------|-----|
A|-4-420-------------------|-[3x]-|-4~~-|
E|-------4-542-0-024---012-|------|-----|

            
            
Suggest correction
Creating personal tab
Creating personal tab
You can edit any tab online and save it as your Personal.

You can edit, replace or remove any tab part or add personal notes – all changes will be seen only by you.

Personal tabs can be accessed anytime from any device, even offline.
Learn more »
Give kudos to tab author, rate the tab!
1 2 3 4 5
comments
print report bad tab
1 comment total.
+1 reply
afropunkx 92 Sep 09, 2009 08:05 AM

good tab probably easier to play the 2s and 1s in the intro verse that are on the d string as 6s and 7s on a but good tab otherwise

guest
You may want to rate the tab now too:
select rating
Wanna post a correction for this tab? Suggest correction