Oops, an error
Loading. Please wait.

Sodom Gomorrah Washington Dc Sheep In Shepherds Clothing bass

version 1
version 1

Whole song

Interactive

4,740 views 9 this week
no commentswrite comment
1 2 3 4 5
x 5
add to favorites
×
Save as Personal and add changes to this tab that will be seen only by you. Learn more ›
×
You can save this tab as Personal to edit and correct it or add notes. All changes will be seen only by you. Learn more »
launch autoscroll
font size
0
reset
guitar tuner
edit
Autoscroll
slow
fast
+/-
esc
set tempo
stop
Author
Difficulty
- Anti-Flag - Sodom, Gomorrah, Washington D.C.
- Tabbed by Pacu, bassist from a brazilian punk rock band that is called PunkAss.
- I guess its good enough. The ending part you have to listen to get right.

__________
Intro
Gb|-0~~-|----|
Db|-0~~-|----|
Ab|-0~~-|-1x-|
Eb|-0~~-|----|

Gb|------------------|----|
Db|---55--55--7755---|----|
Ab|-77--77--77----55-|-8x-|
Eb|------------------|----|

Verse
Gb|-----------------------------------------------|----|
Db|----------7-777777-10-101010101010-10-1010-109-|----|
Ab|-7-777777--------------------------------------|-4x-|
Eb|-----------------------------------------------|----|

Pre-chorus
Gb|-------------171614121412---------------|----|
Db|----------------------------------------|----|
Ab|----------------------------------------|-1x-|
Eb|-0~----0~-----------------0000-0000-0-0-|----|

Chorus
Gb|---------------------------------------------|----|
Db|----------77777777-1010101010101010-10-9-7-9-|----|
Ab|-77777777------------------------------------|-1x-|
Eb|---------------------------------------------|----|

Gb|-----------------------------------------------|----|
Db|----------77777777-1010101010101010-10-9-12-10-|----|
Ab|-77777777--------------------------------------|-1x-|
Eb|-----------------------------------------------|----|

G|----------------------------------|----|
D|---9---9--------------------------|----|
A|-77--77----7---7---10--10--10--10-|-1x-|
E|---------55--55--88--88--88--88---|----|

Bridge I
Gb|------------------|----|
Db|---55--55--7755---|----|
Ab|-77--77--77----55-|-4x-|
Eb|------------------|----|

Verse
Gb|-----------------------------------------------|----|
Db|----------7-777777-10-101010101010-10-1010-109-|----|
Ab|-7-777777--------------------------------------|-4x-|
Eb|-----------------------------------------------|----|

Pre-chorus
Gb|-------------171614121412---------------|----|
Db|----------------------------------------|----|
Ab|----------------------------------------|-1x-|
Eb|-0~----0~-----------------0000-0000-0-0-|----|

Chorus
Gb|---------------------------------------------|----|
Db|----------77777777-1010101010101010-10-9-7-9-|----|
Ab|-77777777------------------------------------|-1x-|
Eb|---------------------------------------------|----|

Gb|-----------------------------------------------|----|
Db|----------77777777-1010101010101010-10-9-12-10-|----|
Ab|-77777777--------------------------------------|-1x-|
Eb|-----------------------------------------------|----|

G|----------------------------------|----|
D|---9---9--------------------------|----|
A|-77--77----7---7---10--10--10--10-|-1x-|
E|---------55--55--88--88--88--88---|----|

Bridge II
G|--------------------------------------------------------|----|
D|--------------------------------------------------------|----|
A|-----------3333333--0000000--1010--1010----1212----1212-|-2x-|
E|-x0000000-x--------x-------88----88----1010----1010-----|----|

Bridge III
Gb|------------------|----|
Db|---55--55--7755---|----|
Ab|-77--77--77----55-|-3x-|
Eb|------------------|----|

G|---------------|----|
D|---------------|----|
A|-7777-7777-7-7-|-1x-|
E|---------------|----|

Guitar Solo
G|----------------------------------------|----|
D|---------------------------10108877-----|----|
A|-7-710109----7--7----10-10---------1010-|-4x-|
E|----------5-5--5--8-8--8--8-------------|----|

Chorus
Gb|---------------------------------------------|----|
Db|----------77777777-1010101010101010-10-9-7-9-|----|
Ab|-77777777------------------------------------|-1x-|
Eb|---------------------------------------------|----|

Gb|-----------------------------------------------|----|
Db|----------77777777-1010101010101010-10-9-12-10-|----|
Ab|-77777777--------------------------------------|-1x-|
Eb|-----------------------------------------------|----|

G|----------------------------------|----|
D|---9---9--------------------------|----|
A|-77--77----7---7---10--10--10--10-|-3x-|
E|---------55--55--88--88--88--88---|----|

Ending
G|---------------|-17171614-16161514-14-14-|----|
D|---------------|-------------------------|----|
A|-7777-7777-7-7-|-------------------------|-1x-|
E|---------------|-------------------------|----|

G|-------------------------|-1716141614--------|----|
D|-14141414-16161616-17-17-|-----------171614/-|----|
A|-------------------------|-------------------|-1x-|
E|-------------------------|-------------------|----|

            
            
Suggest correction
Creating personal tab
Creating personal tab
You can edit any tab online and save it as your Personal.

You can edit, replace or remove any tab part or add personal notes – all changes will be seen only by you.

Personal tabs can be accessed anytime from any device, even offline.
Learn more »
comments
print report bad tab
guest
You may want to rate the tab now too:
select rating
Wanna post a correction for this tab? Suggest correction