Oops, an error
Loading. Please wait.

Sold As Freedom tab

version 3
version 3

Whole song

Interactive

461 views 1 this week
no commentswrite comment
1 2 3 4 5
2 more votes to show rating
add to favorites
×
Save as Personal and add changes to this tab that will be seen only by you. Learn more ›
×
You can save this tab as Personal to edit and correct it or add notes. All changes will be seen only by you. Learn more »
launch autoscroll
font size
0
reset
how to read this tab
guitar tuner
edit
Autoscroll
slow
fast
+/-
esc
set tempo
stop
-------------------------------------------------------------------------------
                                                 Sold as Freedom - Anti-Flag
-------------------------------------------------------------------------------
Tabbed by: Spav_ja

Tuning: 1/2 Step Down

Intro

eb-5-0-0-5-0-0-3-0-----------------------|
bb---------------------------------------|
gb---------------------------------------|
db---------------------------------------|
ab---------------------------------------|
eb---------------------------------------| x12


After x4 intro, 2nd guitar:

eb-----------------------------------------------------|
bb-----------------------------------------------------|
gb--------------5-5-5-------2-2-2-2-2-2-2-2-2-2-2-2----|
db--3-3-3-2-2-2-5-5-5-5-5-5-2-2-2-2-2-2-2-2-2-2-2-2----|
ab--3-3-3-2-2-2-3-3-3-5-5-5-0-0-0-0-0-0-0-0-0-0-0-0----|
eb--1-1-1-0-0-0-------3-3-3----------------------------| x2
                            x x   x x   x x   x x 

Verse 1

2nd Guitar

eb-----------------------------------------------------|
bb-----------------------------------------------------|
gb--------------5-5-5-------2-2-2-2-2-2-2-2-2-2-2-2----|
db--3-3-3-2-2-2-5-5-5-5-5-5-2-2-2-2-2-2-2-2-2-2-2-2----|
ab--3-3-3-2-2-2-3-3-3-5-5-5-0-0-0-0-0-0-0-0-0-0-0-0----|
eb--1-1-1-0-0-0-------3-3-3----------------------------| x4 (last time
    x x x x x x x x x x x x x x   x x   x x   x x         not palm muted)


2nd Guitar

eb-------------------------------------------------------------|
bb-------------------------------------------------------------|
gb--14-14-14-14-14-14-14-14-14-14-14-14-15-15-15-15-14-14-14---|
db--x--x--x--x--x--x--x--x--x--x--x--x--x--x--x--x--x--x--x----|
ab--12-12-12-12-12-12-12-12-12-12-12-12-13-13-13-13-12-12-12---|
eb-------------------------------------------------------------| x2

eb-----------------------------------------------|
bb-----------------------------------------------|
gb--14-14-14-12-12-12-10-10-10-12-12-12-9-9-9-9--|
db--x--x--x--x--x--x--x--x--x--x--x--x--x-x-x-x--|
ab--12-12-12-10-10-10-8--8--8--10-10-10-7-7-7-7--|
eb-----------------------------------------------| 

eb------------------------------------------------|
bb------------------------------------------------|
gb--10-10-10-9-9-9-12-12-12--17-17-17-14-14-14-14-|
db--x--x--x--x-x x-x--x--x---x--x--x--x--x--x--x--|
ab--8--8--8--7-7-7-10-10-10--15-15-15-12-12-12-12-|
eb------------------------------------------------| 

Chorus

eb------------------------------------------------------------|
bb------------------------------------------------------------|
gb--10-10-10-9-9-9-7-7-7-5h7p5-2-2-2-2-2-2-2-2-2-2-2-2--------|
db--10-10-10-9-9-9-7-7-7-------2-2-2-2-2-2-2-2-2-2-2-2--------|
ab--8--8--8--7-7-7-5-5-5-------0-0-0-0-0-0-0-0-0-0-0-0--------|
eb------------------------------------------------------------| x3
                                  
  

Guitar 2 fill in chorus

eb--5---5---5---5---5---|
bb--5---5---5---5---5---|
gb--7b9-7b9-7b9-7b9-7b9-|
db----------------------|
ab----------------------|
eb----------------------| at end of the 2nd time

Chorus Cont

eb-------------------------------------------------------------------|
bb-------------------------------------------------------------------|
gb--5-5-5-5-5-5-5-5-5-5-5-5-5-5-5-5-9-9-9-9-9-9-9-9-9-9-9-9-9-9-9-9--|
db--5-5-5-5-5-5-5-5-5-5-5-5-5-5-5-5-9-9-9-9-9-9-9-9-9-9-9-9-9-9-9-9--|
ab--3-3-3-3-3-3-3-3-3-3-3-3-3-3-3-3-7-7-7-7-7-7-7-7-7-7-7-7-7-7-7-7--|
eb-------------------------------------------------------------------| 


Verse 2

1st Guitar

eb-----------------------------------------------------|
bb-----------------------------------------------------|
gb--------------5-5-5-------2-2-2-2-2-2-2-2-2-2-2-2----|
db--3-3-3-2-2-2-5-5-5-5-5-5-2-2-2-2-2-2-2-2-2-2-2-2----|
ab--3-3-3-2-2-2-3-3-3-5-5-5-0-0-0-0-0-0-0-0-0-0-0-0----|
eb--1-1-1-0-0-0-------3-3-3----------------------------| x4 (last time
    x x x x x x x x x x x x x x   x x   x x   x x         not palm muted)


2nd Guitar

eb-------------------------------------------------------------|
bb-------------------------------------------------------------|
gb--14-14-14-14-14-14-14-14-14-14-14-14-15-15-15-15-14-14-14---|
db--x--x--x--x--x--x--x--x--x--x--x--x--x--x--x--x--x--x--x----|
ab--12-12-12-12-12-12-12-12-12-12-12-12-13-13-13-13-12-12-12---|
eb-------------------------------------------------------------| x2

eb-----------------------------------------------|
bb-----------------------------------------------|
gb--14-14-14-12-12-12-10-10-10-12-12-12-9-9-9-9--|
db--x--x--x--x--x--x--x--x--x--x--x--x--x-x-x-x--|
ab--12-12-12-10-10-10-8--8--8--10-10-10-7-7-7-7--|
eb-----------------------------------------------| 

eb------------------------------------------------|
bb------------------------------------------------|
gb--10-10-10-9-9-9-12-12-12--17-17-17-14-14-14-14-|
db--x--x--x--x-x x-x--x--x---x--x--x--x--x--x--x--|
ab--8--8--8--7-7-7-10-10-10--15-15-15-12-12-12-12-|
eb------------------------------------------------| 


Chorus

eb------------------------------------------------------------|
bb------------------------------------------------------------|
gb--10-10-10-9-9-9-7-7-7-5h7p5-2-2-2-2-2-2-2-2-2-2-2-2--------|
db--10-10-10-9-9-9-7-7-7-------2-2-2-2-2-2-2-2-2-2-2-2--------|
ab--8--8--8--7-7-7-5-5-5-------0-0-0-0-0-0-0-0-0-0-0-0--------|
eb------------------------------------------------------------| x3
                                 
  

Guitar 2 fill in chorus

eb--5---5---5---5---5---|
bb--5---5---5---5---5---|
gb--7b9-7b9-7b9-7b9-7b9-|
db----------------------|
ab----------------------|
eb----------------------| at end of the 2nd time

Chorus Cont

eb-------------------------------------------------------------------|
bb-------------------------------------------------------------------|
gb--5-5-5-5-5-5-5-5-5-5-5-5-5-5-5-5-9-9-9-9-9-9-9-9-9-9-9-9-9-9-9-9--|
db--5-5-5-5-5-5-5-5-5-5-5-5-5-5-5-5-9-9-9-9-9-9-9-9-9-9-9-9-9-9-9-9--|
ab--3-3-3-3-3-3-3-3-3-3-3-3-3-3-3-3-7-7-7-7-7-7-7-7-7-7-7-7-7-7-7-7--|
eb-------------------------------------------------------------------| 

Breakdown

eb-----------------------------------|
bb-----------------------------------|
gb-----------------2-----------------|
db-3-3-2---2-3-2---2-3-2---5-3-2-5---|
ab-3-----3-2-----3-0-----3-5---------|
eb-1-------0---------------3---------| x2 (On 2nd time let Gb chord 
                                   ring out instead of playing db-3-2-5)

Breakdown Cont

1st Guitar

eb--------------------------------------------------|
bb--------------------------------------------------|
gb--------------------------------------------------|
db--3--3--3-3-3-3-2-2-2-2-7--7--7-7-7-7-5-5-5-5-----|
ab--3--3--3-3-3-3-2-2-2-2-7--7--7-7-7-7-5-5-5-5-----|
eb--1--1--1-1-1-1-0-0-0-0-5--5--5-5-5-5-3-3-3-3-----| x2

2nd Guitar

eb----------------------------------------------------|
bb----------------------------------------------------|
gb--10--10--10-10-10-10-9-9-9-9-----------------------|
db--10--10--10-10-10-10-9-9-9-9-7--7--7-7-7-7-5-5-5-5-|
ab--8---8---8--8--8--8--7-7-7-7-7--7--7-7-7-7-5-5-5-5-|
eb------------------------------5--5--5-5-5-5-3-3-3-3-| x2


Then

eb--------------------------------------|
bb--------------------------------------|
gb--------------------------------------|
db--3-3-3-3-2-2-2-2-7-7-7-7-5-5-5-5-----|
ab--3-3-3-3-2-2-2-2-7-7-7-7-5-5-5-5-----|
eb--1-1-1-1-0-0-0-0-5-5-5-5-3-3-3-3-----|
    x x x x x x x x x x x x x x x x

eb--------------------------------------|
bb--------------------------------------|
gb--------------------------------------|
db--3-3-3-3-2-2-2-2-7-7-7-7-5-5-5-5-----|
ab--3-3-3-3-2-2-2-2-7-7-7-7-5-5-5-5-----|
eb--1-1-1-1-0-0-0-0-5-5-5-5-3-3-3-3-----|
    x x x x x x x x

Outro

1st Guitar

eb-5-0-0-5-0-0-3-0-----------------------|
bb---------------------------------------|
gb---------------------------------------|
db---------------------------------------|
ab---------------------------------------|
eb---------------------------------------| x14


2nd guitar:

eb-----------------------------------------------------|
bb-----------------------------------------------------|
gb--------------5-5-5-------2-2-2-2-2-2-2-2-2-2-2-2----|
db--3-3-3-2-2-2-5-5-5-5-5-5-2-2-2-2-2-2-2-2-2-2-2-2----|
ab--3-3-3-2-2-2-3-3-3-5-5-5-0-0-0-0-0-0-0-0-0-0-0-0----|
eb--1-1-1-0-0-0-------3-3-3----------------------------| x3
                            x x   x x   x x   x x 


eb-----------------------------------------------------|
bb-----------------------------------------------------|
gb--------------5-5-5-------2--------------------------|
db--3-3-3-2-2-2-5-5-5-5-5-5-2--------------------------|
ab--3-3-3-2-2-2-3-3-3-5-5-5-0--------------------------|
eb--1-1-1-0-0-0-------3-3-3----------------------------| 

(Last One)



                             



            
            
Suggest correction
Creating personal tab
Creating personal tab
You can edit any tab online and save it as your Personal.

You can edit, replace or remove any tab part or add personal notes – all changes will be seen only by you.

Personal tabs can be accessed anytime from any device, even offline.
Learn more »
Give kudos to tab author, rate the tab!
1 2 3 4 5
comments
print report bad tab
guest
You may want to rate the tab now too:
select rating
Wanna post a correction for this tab? Suggest correction