Oops, an error
Loading. Please wait.

The Bright Lights Of America bass

version 1
version 1

Whole song

Interactive

5,601 views 3 this week
3 commentsread comments
1 2 3 4 5
x 4
add to favorites
×
Save as Personal and add changes to this tab that will be seen only by you. Learn more ›
×
You can save this tab as Personal to edit and correct it or add notes. All changes will be seen only by you. Learn more »
launch autoscroll
font size
0
reset
guitar tuner
edit
Autoscroll
slow
fast
+/-
esc
set tempo
stop
Author
Difficulty
- Anti-Flag - The Bright Lights Of America
- Tabbed by: Pacu, bassist from a bazilian punk rock band called PunkAss.
- This song will be on their new cd called the bright lights of america, which will be 
on april. The song itself is really easy to play, just listen the ending part to get that 
enjoy.

_______________

Intro [2x]
G|---------------------------------------------------------------------|
D|-------------4h6-44444444-44-4h6-4------------------4h6-444444-33----|
A|-44444444-4h6----------------------6-4----------4h6---------------66-|
E|---------------------------------------44444444----------------------|

Verse
G|-------66-------66-------66-----------33-------33-------------------|
D|---66-------66-------66-----------33-------33-----------44----------|
A|-44--44---44--44---44--44---4-3-11--11---11--11-----44--------44----|
E|--------------------------------------------------22--22----22--222-|

G|-------66-------66-------66-----------33-------33------------------|
D|---66-------66-------66-----------33-------33----------44-------44-|
A|-44--44---44--44---44--44---4-3-11--11---11--11----44-------44-----|
E|-------------------------------------------------22--22---22--22---|

Pré-chorus
G|------------------------------------------------------------------------------|
D|-----------------------------------------------------------------------334466-|
A|-----------------------------------------------------------------334466-------|
E|-22222222222222222-4444444444444444/12\4-222222222222222222-4466--------------|

Chorus [2x]
G|--------66--------------------------------------------------------|
D|------------------66----------------------------------------------|
A|-4-4444----4-4444----4-444444-4-3-1-111111-1-----------------1-11-|
E|---------------------------------------------4-2-222222-4-44------|

Intro [2x]

Verse [2x]
G|----------------------------------------------------------------------------|
D|----------------------------------------------------------------------------|
A|-4-444444-4-444444-4-444444-4-44444-4-3--1-111111-1-111111------------------|
E|------------------------------------------------------------2-22222-2-22222-|

Pré-chorus
Chorus [2x]

Bridge
G|---------------------------------------------------------------|
D|---------------------------------------------------------------|
A|-1-111111-1-3-1-0--4-444444-4-6-4-3-----------4---6------------|
E|-------------------------------------4-444444---4---4--2-2-2-2-|

G|-----------------------------------------------------------------------------------------|
D|-------------------------------------6-666666-6-8-6-5--4-444444-4-6-4-3--4-444444-666666-|
A|-1-111111-1-3-1-0--4-444444-4-6-4-3------------------------------------------------------|
E|-----------------------------------------------------------------------------------------|

Chorus [2x]

Last Chorus [2x]
G|------6------6------6------6-------3------3---------------|
D|---6------6------6------6-------3------3---------4------4-|
A|-44-44--44-44--44-44--44-44---11-11--11-11----4------4----|
E|--------------------------------------------22-22--22-22--|

Ending
G|----------------|
D|----------------|
A|-4~----4-4-4-4/-|
E|----------------|

            
            
Suggest correction
Creating personal tab
Creating personal tab
You can edit any tab online and save it as your Personal.

You can edit, replace or remove any tab part or add personal notes – all changes will be seen only by you.

Personal tabs can be accessed anytime from any device, even offline.
Learn more »
comments
print report bad tab
3 comments total.
0 reply
bassbomb1193 320 May 27, 2008 03:18 PM

awesomes 5*

0 reply
chrisjenks 2,712 Jul 22, 2008 07:47 AM

bang on. great job!

0 reply
Mr. Thingy 260 Sep 19, 2008 06:26 PM

Your tabs are getting way better! 5 stars dude.

guest
You may want to rate the tab now too:
select rating
Wanna post a correction for this tab? Suggest correction