Oops, an error
Loading. Please wait.

The Ink And The Quill bass

version 1
version 1

Whole song

1,017 views 1 this week
3 commentsread comments
1 2 3 4 5
1 last vote to show rating
add to favorites
×
Save as Personal and add changes to this tab that will be seen only by you. Learn more ›
×
You can save this tab as Personal to edit and correct it or add notes. All changes will be seen only by you. Learn more »
launch autoscroll
font size
0
reset
guitar tuner
edit
Autoscroll
slow
fast
+/-
esc
set tempo
stop
Author
Difficulty
- Anti-Flag - The Ink And The Quill
- Tabbed by: Pacu, bassist from a brazilian punk rock band called PunkAss.
- This song is so nice. You have to listen some parts to get them right. I guess its 
correct, so enjoy it.

_____________________


Verse
G|----------|------------------|-------------------|--------------------|
D|----------|---203220--203220-|---203220---203220-|---2p032p053/2h320--|
A|-00000000-|------------------|-3--------3--------|------------------3-|
E|----------|-1-------1--------|-------------------|-3------------------|

G|-------------------|------------------|-------------------|----------------|
D|---203220---203220-|---203220--203220-|---203220---203220-|---20320532320--|
A|-0--------0--------|------------------|-3--------3--------|--------------3-|
E|-------------------|-1-------1--------|-------------------|-3--------------|

Pre-chorus I
G|------------|
D|------------|
A|------------|
E|-1~--3~--33-|

Chorus
G|--------------------------------------------------------------------------------|
D|--------------------------------------------------------------------------------|
A|-0-000000-2-22-3-33-----------3-33-5-55--0-000000-2-22-3-33-----------5-3-2-320-|
E|---------------------1-111111--------------------------------0-000000-----------|

G|-------------------------------------------------------------------------------|
D|-------------------------------------------------------------------------------|
A|-0-000000-2-22-3-33-----------3-33-5-55--0-000000-2-22-3-33--------------------|
E|---------------------1-111111--------------------------------00000000-00000000-|

Verse
G|-------------|------------------|-------------------|--------------------|
D|-------------|---203220--203220-|---203220---203220-|---2p032p053/2h320--|
A|-0~--00------|------------------|-3--------3--------|------------------3-|
E|---------12/-|-1-------1--------|-------------------|-3------------------|

G|-------------------|------------------|-------------------|----------------|
D|---203220---203220-|---203220--203220-|---203220---203220-|---20320532320--|
A|-0--------0--------|------------------|-3--------3--------|--------------3-|
E|-------------------|-1-------1--------|-------------------|-3--------------|

Pre-chorus II
G|--------------------------------------|------------------------------|
D|--------------------------------------|------------------------------|
A|-------------------0-000000-----------|------------------------------|
E|-1-111111-1-111111----------3-3h5-3-2-|-1-111111-1-111111-3-333333-3-|

Chorus
G|--------------------------------------------------------------------------------|
D|--------------------------------------------------------------------------------|
A|-0-000000-2-22-3-33-----------3-33-5-55--0-000000-2-22-3-33-----------5-3-2-320-|
E|---------------------1-111111--------------------------------0-000000-----------|

G|-------------------------------------------------------------------------------|
D|-------------------------------------------------------------------------------|
A|-0-000000-2-22-3-33-----------3-33-5-55--0-000000-2-22-3-33--------------------|
E|---------------------1-111111--------------------------------00000000-00000000-|

Bridge I
G|--------|-------------------|----------|-------------------|
D|--------|-------------------|----------|-------------------|
A|-0~--00-|----------3-333333-|-00--00~--|----------3-333333-|
E|--------|-1-111111----------|----------|-1-111111----------|

G|-------------------------------------|------|-------------------|--------|
D|-------------------------------------|------|-------------------|--------|
A|----------------------------3-333333-|-[2x]-|-------------------|-0~~~~~-|
E|-3-333333-3-333333-1-111111----------|------|-3-333333-3-333333-|--------|

Bridge II [02:19]
G|------------------------|
D|------------------------|
A|---------15-17-19-17-15-|
E|-12\--15----------------|

G|----------------------------------------------------------------------------|
D|----------------------------------------------------------------------------|
A|-20-19-17-20-19-17-22-20-19--17-19-20-15-20-19-15-20-19----15-17-19-17-15---|
E|--------------------------------------------------------15------------------|
G|----------------------------------------------------------------------------|
D|----------------------------------------------------------------------------|
A|-20-19-17-20-19-17-22-20-19--17-19-20-15-20-19-15-20-19---------------------|
E|--------------------------------------------------------15~~~---------------|

Guitar Solo
G|-----|
D|-----|
A|-----|
E|-12/-|

G|----------------------------------------------------------------------------|
D|----------------------------------------------------------------------------|
A|-0-000000-0-00000h1----------------12-3-333333-3-33333h5--------------------|
E|--------------------1-111111-1-1113----------------------3-333333-3-33333h5-|

G|-----------------------------------------------------------------------------|
D|-----------------------------------------------------------------------------|
A|-0-000000-0-00000h1----------------12-3-333333-3-33333h5---------------------|
E|--------------------1-111111-1-1113----------------------33333333-33333\12/3-|

Outro
G|----------------------------------------------------------------------|------|
D|----------------------------------------------------------------------|------|
A|-0-000-00-2-22-3-33----------3-33-5-55-3-333-33-8-88-7-77--------5323-|-[2x]-|
E|--------------------1-111-11------------------------------3-333-3-----|------|

Ending [2x]
G|---------------------------------------------------------------------|------|
D|---------------------------------------------------------------------|------|
A|-0-000-000-000-00------------------3-333-333-333-33------------------|-[2x]-|
E|------------------1-111-111-111-11------------------3-333-333-333-33-|------|

G|------|
D|------|
A|------|
E|-0~~~-|

            
            
Suggest correction
Creating personal tab
Creating personal tab
You can edit any tab online and save it as your Personal.

You can edit, replace or remove any tab part or add personal notes – all changes will be seen only by you.

Personal tabs can be accessed anytime from any device, even offline.
Learn more »
Give kudos to tab author, rate the tab!
1 2 3 4 5
comments
print report bad tab
3 comments total.
0 reply
chrisjenks 2,712 Jul 22, 2008 06:52 AM

shouldn't the verse be something more like this:

G|------------------|-------------------|------------------|
D|---202320--202320-|---202320---202320-|---202323532320---|
A|------------------|-3--------3--------|---------------32-|
E|-1-------1--------|-------------------|-3----------------|

what do you think?

0 reply
chrisjenks 2,712 Jul 22, 2008 07:16 AM

Also, it feels a lot easier to me playing the bridge like this: (even though yours is correct) especially seeing as my squier p bass doesn't have a 22nd fret

bridge

G|------------------------|
D|-----------10-12-14-12----|
A|-7/---10---------------15-|
E|--------------------------|

G|-------------------12-------------------------------------------------------|
D|-15-14-12-15-14-12----15-14-12-14-15----15-14----15-14-------12-14-12-------------------|
A|-------------------------------------15-------15----------15----------15---|
E|-------------------------------------------------------15------------------|


G|-------------------12----------------------------------------|
D|-15-14-12-15-14-12----15-14-12-14-15----15-14----15-14-------|
A|-------------------------------------15-------15-------------|
E|-------------------------------------------------------15~~--|

0 reply
pacu 2,540 Nov 28, 2008 03:56 PM

it sounds cool playing like you posted too man

guest
You may want to rate the tab now too:
select rating
Wanna post a correction for this tab? Suggest correction