Oops, an error
Loading. Please wait.
We have an official This Is The End For You My Friend tab made by UG professional guitarists. Check out the tab »
×
10,689 views 3 this week
8 commentsread comments
1 2 3 4 5
x 13
add to favorites
×
Save as Personal and add changes to this tab that will be seen only by you. Learn more ›
×
You can save this tab as Personal to edit and correct it or add notes. All changes will be seen only by you. Learn more »
launch autoscroll
font size
0
reset
guitar tuner
edit
Autoscroll
slow
fast
+/-
esc
set tempo
stop
Author
Difficulty
This Is The End (For You My Friend) - Anti-Flag

Track 6 on For Blood And Empire

Verse:

G|-------------------------------------------------------------------3-|
D|---3-1---------------3-1-------3-1---------------3-1---------3-------|
A|-1-----3-1---------1-----3-1-1-----3-1---------1-----3-1-1-1---1-1---|
E|-----------1-1-1-2---------------------1-1-1-2-----------------------|

G|------------------------------------------------------------|
D|---3-1---------------3-1-------3-1---------------3-1-----1--|
A|-1-----3-1---------1-----3-1-1-----3-1---------1-----3-1----|
E|-----------1-1-1-2---------------------1-1-1-2--------------|

Pre-Chorus:

G|--------------|
D|--------------|
A|--------------|
E|-2-2-2-2-2-1--|

Chorus:

G|--------------------------------|
D|--------------------------------|
A|-4-4-4-4------------------------|x2
E|---------4-4-4-4-6-6-6-1-2-2-2-2|

G|-------------------------------------------------------------------------|
D|---------6-6-6-6-8-8-8-3-4-4-4-4---------6-6-6-6-------------------------|
A|-4-4-4-4-------------------------4-4-4-4---------------------------------|
E|-------------------------------------------------6-6-6-6-1-1-1-2-6-6-6-6-|

During Guitar Solo:

G|----------------|
D|----------------|
A|----------------|
E|6-6-6-6-1-1-1-2-|

Verse:

G|-------------------------------------------------------------------3-|
D|---3-1---------------3-1-------3-1---------------3-1---------3-------|
A|-1-----3-1---------1-----3-1-1-----3-1---------1-----3-1-1-1---1-1---|
E|-----------1-1-1-2---------------------1-1-1-2-----------------------|

G|------------------------------------------------------------|
D|---3-1---------------3-1-------3-1---------------3-1-----1--|
A|-1-----3-1---------1-----3-1-1-----3-1---------1-----3-1----|
E|-----------1-1-1-2---------------------1-1-1-2--------------|

Pre-Chorus:

G|--------------|
D|--------------|
A|--------------|
E|-2-2-2-2-2-1--|

Chorus:

G|--------------------------------|
D|--------------------------------|
A|-4-4-4-4------------------------|x2
E|---------4-4-4-4-6-6-6-1-2-2-2-2|

G|-------------------------------------------------|
D|---------6-6-6-6-8-8-8-3-4-4-4-4---------6-6-6-6-|
A|-4-4-4-4-------------------------4-4-4-4---------|
E|-------------------------------------------------|

Bridge:

G|----------------------------------------------------------------------------------------|
D|----------------------------------------------------------------------------------------|
A|-1-----4-----1-----4----1-1-1-1---------4-4-4-4---------1-1-1-1---------4-4-4-4---------|
E|----2-----1-----2-----1---------2-2-2-2---------1-1-1-1---------2-2-2-2---------1-1-1-1-|

G|----------------------------------------------------------------|-------|
D|--------4-4-4-4---------3-3-3-3---------4-4-4-4---------3-3-3-3-|-------|
A|1-1-1-1---------4-4-4-4---------1-1-1-1---------4-4-4-4---------|-------|
E|----------------------------------------------------------------|-2--1--|

Chorus

G|--------------------------------|
D|--------------------------------|
A|-4-4-4-4------------------------|x2
E|---------4-4-4-4-6-6-6-1-2-2-2-2|

G|-----------------------------------------------------------------|
D|---------6-6-6-6-8-8-8-3-4-4-4-4---------6-6-6-6-8-8-8-3-4-4-4-4-|
A|-4-4-4-4-------------------------4-4-4-4-------------------------|
E|-----------------------------------------------------------------|

G|----------------------------------------------------|
D|-------3h4-6-4-3-4---3-1-3-1---1-3-1---------3p4-6--|
A|-4-4-4-------------6---------4-------4-4-4-4-------4|
E|----------------------------------------------------|

Outro:

G|----------------------------|
D|---3-1---------------3-1----|
A|-1-----3-1---------1-----3-1|x2
E|-----------1-1-1-2----------|

            
            
Suggest correction
Creating personal tab
Creating personal tab
You can edit any tab online and save it as your Personal.

You can edit, replace or remove any tab part or add personal notes – all changes will be seen only by you.

Personal tabs can be accessed anytime from any device, even offline.
Learn more »
comments
print report bad tab
8 comments total. Showing first comments.
0 reply
uncle_timmay 30 Jun 06, 2006 09:53 AM

gr8 tab cheerz. way better than the uva one. 5 stars

0 reply
nicklopeke 31 Feb 05, 2007 04:40 PM

great tab, awesome song to play.

0 reply
PuNkBaSsIsT_69 10 May 06, 2007 11:17 AM

everything but the verse is correct,the first part should be

G|----------
D|----------
A|--4-2-----
E|2-----2-2-

i saw them live,thats how he played it

guest
You may want to rate the tab now too:
select rating
Wanna post a correction for this tab? Suggest correction