Oops, an error
Loading. Please wait.
We have an official Turncoat tab made by UG professional guitarists. Check out the tab »
×
1,859 views 1 this week
no commentswrite comment
1 2 3 4 5
x 5
add to favorites
×
Save as Personal and add changes to this tab that will be seen only by you. Learn more ›
×
You can save this tab as Personal to edit and correct it or add notes. All changes will be seen only by you. Learn more »
launch autoscroll
font size
0
reset
guitar tuner
edit
Autoscroll
slow
fast
+/-
esc
set tempo
stop
Author
Song: Turncoat
Artist: Anti-Flag
Album: The Terror State

Really cool song from an awesome album. While parts of this song sound hard, they are 
easier to play than they sound. All notes are arranged according to the timing of the 
If you want to print this tab, use the font Courier New with size 9, and every 
single line of tab will be on one page. Enjoy!


INTRO   ( :  )

G|----------------|----------------|
D|----------------|----------------|
A|----------------|----------------|
D|3-3-3-3-3-3-3-3-|3---------------|

G|----------------|----------------|----------------|----------------|
D|----------------|----------------|----------------|----------------|
A|----------------|----------------|1-1-0-0-----0-0-|------------0-0-|
D|3-3-3-3-3-3-3-3-|5-5-5-5-5-5-5-5-|--------5-5-----|5-5-3-3-5-5-----|

G|----------------|----------------|----------------|----------------|
D|----------------|----------------|----------------|----------------|
A|----------------|----------------|1-1-0-0-1-1-3-3-|1-1-3-3/5-5-3-3-|
D|3-3-3-3-3-3-3-3-|5-5-5-5-5-5-5-5-|----------------|----------------|


VERSE   ( :  )

G|----------------|----------------|----------------|----------------|
D|----------------|----------------|----3-------3---|----3-------3---|
A|----------------|----------------|1-1-----1-1-----|1-1-----1-1-----|
D|3-3-3-3-3-3-3-3-|5-5-5-5-5-5-5-5-|----------------|----------------|  x3

G|----------------|----------------|----------------|----------------|
D|----------------|----------------|----------------|----------------|
A|----------------|----------------|1-1-1-1-0-0-0-0-|----------------|
D|3-3-3-3-3-3-3-3-|5-5-5-5-5-5-5-5-|----------------|5-5-5-5-2-2-2-2-|


CHORUS 1   ( :  )

G|----------------|----------------|----------------|----------------|
D|----------------|----------------|----------------|----------------|
A|----------------|----------------|1---1-----------|----------------|
D|3---3-----------|5-5-5-----------|----------------|0-0-0-------10\-|

G|----------------|----------------|----------------|----------------|
D|----------------|----------------|----3-------3-3-|----3-----3-1---|
A|1---1---1-1-1-1-|0---0-----------|----------------|--------------3-|
D|----------------|--------5-5-5-5-|3-3-----3-3-----|3-3-----3-------|

G|----------------|----------------|----------------|----------------|
D|----------------|----------------|----------------|----------------|
A|----------------|----------------|1---1-----------|----------------|
D|3---3-----------|5-5-5-----------|----------------|0-0-0-------10\-|

G|----------------|----------------|
D|----------------|----------------|
A|1---1---1-1-1-1-|0---0-----------|
D|----------------|--------5-5-5-5-|


INTERLUDE   ( :  )

G|----------------|----------------|----------------|----------------|
D|----------------|----------------|----------------|----------------|
A|----------------|----------------|----------------|----------------|
D|3~~~~~~~~~~~~~~~|(3)~~~~~~~~~~~~~|(3)-------------|----------------|


Rest 4 bars

G|----------------|----------------|----------------|----------------|
D|----------------|----------------|----------------|----------------|
A|----------------|----------------|----------------|----------------|
D|3-3-3-3-3-3-3-3-|3-3-3-3-3-3-3-3-|5-5-5-5-5-5-5-5-|5-5-5-5-5-5-5-5-|

G|----------------|----------------|----------------|----------------|
D|----------------|----------------|----------------|----------------|
A|----------------|----------------|3---------------|1---------------|
D|0-0-0-0-0-0-0-0-|0-0-0-0-0-0-0-0-|----------------|----------------|

G|----------------|----------------|----------------|----------------|
D|----------------|----------------|----------------|----------------|
A|3---------------|1---------------|3-------1-------|3-------1-------|
D|----------------|----------------|----------------|----------------|

G|----------------|----------------|
D|----------------|----------------|
A|3---1---3---1---|3---------------|
D|----------------|----------------|

CHORUS 2   ( :  )

G|----------------|----------------|----------------|----------------|
D|----------------|----------------|----------------|----------------|
A|----------------|----------------|1---1-----------|----------------|
D|3---3-----------|5-5-5-----------|----------------|0-0-0-------10\-|

G|----------------|----------------|----------------|----------------|
D|----------------|----------------|----3-------3-3-|----3-----3-1---|
A|1---1---1-1-1-1-|0---0-----------|----------------|--------------3-|
D|----------------|--------5-5-5-5-|3-3-----3-3-----|3-3-----3-------|

G|----------------|----------------|--------3-1-----|----------------|
D|--------3-1-----|------------1-3-|------------3-1-|------------0---|
A|------------3-1-|--------1-3-----|1---1-----------|--------0h2-----|
D|3---3-----------|5-5-5-----------|----------------|0-0-0-----------|

G|----------------|----------------|
D|----------------|----------------|
A|1---1---1-1-1-1-|0---0-----------|
D|----------------|--------5-5-5-5-|


OUTRO   ( :  )

G|----------------|----------------|----------------|----------------|
D|----------------|----------------|----------------|----------------|
A|----------------|----------------|1-1-0-0-----0-0-|------------0-0-|
D|3-3-3-3-3-3-3-3-|5-5-5-5-5-5-5-5-|--------5-5-----|5-5-3-3-5-5-----|

G|----------------|----------------|----------------|----------------|
D|----------------|----------------|----------------|----------------|
A|----------------|----------------|1-1-0-0-1-1-3-3-|1-1-3-3/5-5-3~~/|
D|3-3-3-3-3-3-3-3-|5-5-5-5-5-5-5-5-|----------------|----------------|

G|----------------|----------------|----------------|----------------|
D|----------------|----------------|8-8-7-7---------|----------------|
A|8-8-8-8-8-8-7-8-|1010101010108-10|--------10108-8-|10108-8-7-7-8-8-|
D|----------------|----------------|----------------|----------------|

G|----------------|----------------|10109-9-7-7-----|----------------|
D|----------------|----------------|------------1010|8-8-7-7-----7-7-|
A|8-8-8-8-8-8-7-8-|1010101010101010|----------------|--------1010----|
D|----------------|----------------|----------------|----------------|

G|10109-9-7-7-----|----------------|10109-9-7-7-----|----------------|
D|------------1010|8-8-7-7-----7-7-|------------1010|8-8-7-7-----7-7-|
A|----------------|--------1010----|----------------|--------1010----|
D|----------------|----------------|----------------|----------------|

G|----------------|----------------|
D|----------------|----------------|
A|8-8-8-8-8-8-8~~\|----------------|
D|----------------|3---------------|    - :


Symbol Legend:

/    = Slide up
x3   = Play this section three times
\    = Slide down
~    = Let note ring
(3)  = Let note ring into next bar
h    = Hammer-on
~/   = Hold note then slide up
~\   = Hold note then slide down

That’s it. Any questions, comments, suggestions or corrections would be appreciated.

            
            
Suggest correction
Creating personal tab
Creating personal tab
You can edit any tab online and save it as your Personal.

You can edit, replace or remove any tab part or add personal notes – all changes will be seen only by you.

Personal tabs can be accessed anytime from any device, even offline.
Learn more »
comments
print report bad tab
guest
You may want to rate the tab now too:
select rating
Wanna post a correction for this tab? Suggest correction