Oops, an error
Loading. Please wait.

We Are The One tab

4,351 views 12 this week
2 commentsread comments
1 2 3 4 5
1 last vote to show rating
add to favorites
×
Save as Personal and add changes to this tab that will be seen only by you. Learn more ›
×
You can save this tab as Personal to edit and correct it or add notes. All changes will be seen only by you. Learn more »
launch autoscroll
font size
0
reset
how to read this tab
guitar tuner
edit
Autoscroll
slow
fast
+/-
esc
set tempo
stop
-------------------------------------------------------------------------------
                             We Are The One - Anti-Flag
-------------------------------------------------------------------------------
Tabbed by:PT-E
Email:

Tuning: 1/2 step down


Intro
 Guitar 1  3x
|---------------------------------------------------------------------------------|
|---------------------------------------------------------------------------------|
|-----11-11---------------11-11-------9-9-----11-11---------------11-11-------9-9-|
|-----------11-11-9-9-----------11-11---------------11-11-9-9-----------11-11-----|
|-9-9-----------------9-9-----------------9-9-----------------9-9-----------------|
|---------------------------------------------------------------------------------|

 Guitar 2
|---------------------------------------------------------------------------------|
|---------------------------------------------------------------------------------|
|-------------------------------------------------------------7-------------------|
|-4---------------------------------------7-------------------7-------------------|
|-4---------------------------------------7-------------------5-------------------|
|-2---------------------------------------5---------------------------------------|

|---------------------------------------------------------------------------------|
|---------------------------------------------------------------------------------|
|-11----------------------------------------------------------7-------------------|
|-11--------------------------------------7-------------------7-------------------|
|-9---------------------------------------7-------------------5-------------------|
|-----------------------------------------5---------------------------------------|


 Guitar 1  2x
|---------------------------------------------------------------------------------|
|---------------------------------------------------------------------------------|
|-----11-11---------------11-11-------9-9--11-11-9-9-----------11-11-9-9----------|
|-----------11-11-9-9-----------11-11----------------11-11-9-9-----------11-11-9-9|
|-9-9-----------------9-9---------------------------------------------------------|
|---------------------------------------------------------------------------------|

 Guitar 2 
|---------------------------------------------------------------------------------|
|---------------------------------------------------------------------------------|
|--------------------------------------------------------------7-7-7-7-7-7-7-7-7-7|
|-4-4-4-4-4-4-4-4-4-4-4-4-4-4-4-4-4-4-4-4--7-7-7-7-7-7-7-7-7-7-7-7-7-7-7-7-7-7-7-7|
|-4-4-4-4-4-4-4-4-4-4-4-4-4-4-4-4-4-4-4-4--7-7-7-7-7-7-7-7-7-7-5-5-5-5-5-5-5-5-5-5|
|-2-2-2-2-2-2-2-2-2-2-2-2-2-2-2-2-2-2-2-2--5-5-5-5-5-5-5-5-5-5--------------------|

|---------------------------------------------------------------------------------|
|---------------------------------------------------------------------------------|
|-1111111111111111111111111111111111111111---------------------7-7-7-7-7-7-7-7-7-7|
|-1111111111111111111111111111111111111111-7-7-7-7-7-7-7-7-7-7-7-7-7-7-7-7-7-7-7-7|
|-9-9-9-9-9-9-9-9-9-9-9-9-9-9-9-9-9-9-9-9--7-7-7-7-7-7-7-7-7-7-5-5-5-5-5-5-5-5-5-5|
|------------------------------------------5-5-5-5-5-5-5-5-5-5--------------------|

 Verse
|---------------------------------------------------------------------------|
|---------------------------------------------------------------------------|
|--------7-7-7-7-7-7-7-----------------------7-7-7-7-7-7-7------------------|
|-4------7-7-7-7-7-7-7--7-7-7-7-7-7---4------7-7-7-7-7-7-7--7-7-7-7-7-7-7---|
|-4------5-5-5-5-5-5-5--7-7-7-7-7-7---4------5-5-5-5-5-5-5--7-7-7-7-7-7-7---|
|-2---------------------5-5-5-5-5-5---2---------------------5-5-5-5-5-5-5---|

|---------------------------------------------------------------------------|
|---------------------------------------------------------------------------|
|-----------------------------------7-7-7-7-7-7-7-7-7-7-7-9-9-9-9-9-9-9-----|
|-4-4-4-4-4-4-4-4-4-7-7-7-7-7-7-7-7-7-7-7-7-7-7-7-7-7-7-7-9-9-9-9-9-9-9-----|
|-4-4-4-4-4-4-4-4-4-7-7-7-7-7-7-7-7-5-5-5-5-5-5-5-5-5-5-5-7-7-7-7-7-7-7-----|
|-2-2-2-2-2-2-2-2-2-5-5-5-5-5-5-5-5-----------------------------------------|
    x x x x x x x x   x x x x x x x   x x x x x x x x x x x x x x

Chorus 2x
|---------------------------------------------------------------------------|
|---------------------------------------------------------------------------|
|-----------7-7-7-7-7-----------9-9-9-9-9-----------------------------------|
|-4-4-4-4-4-7-7-7-7-7-7-7-7-7-7-9-9-9-9-9-----------------------------------|
|-4-4-4-4-4-5-5-5-5-5-7-7-7-7-7-7-7-7-7-7-----------------------------------|
|-2-2-2-2-2-----------5-5-5-5-5---------------------------------------------|


 Guitar 1
|---------------------------------------------------------------------------|
|---------------------------------------------------------------------------|
|-111111111111111111111111111111111111111111111111131313-141414-1616--------|
|-x-x-x-x-x-x-x-x-x-x-x-x-x-x-x-x-x-x-x-x-x-x-x-x-xxxxxx-xxxxxx-xxxx--------|
|-9-9-9-9-9-9-9-9-9-9-9-9-9-9-9-9-9-9-9-9-9-9-9-9-111111-121212-1414--------|
|---------------------------------------------------------------------------|
 Guitar 2
|---------------------------------------------------------------------------|
|---------------------------------------------------------------------------|
|-----------------7-7-7-7-7-7-7-7-----------------9-9-9-9-9-9-9-9-----------|
|-4-4-4-4-4-4-4-4-7-7-7-7-7-7-7-7-7-7-7-7-7-7-7-7-9-9-9-9-9-9-9-9-----------|
|-4-4-4-4-4-4-4-4-5-5-5-5-5-5-5-5-7-7-7-7-7-7-7-7-7-7-7-7-7-7-7-7-----------|
|-2-2-2-2-2-2-2-2-----------------5-5-5-5-5-5-5-5---------------------------|

 Guitar 1
|---------------------------------------------------------------------------|
|---------------------------------------------------------------------------|
|-111111111111111111111111111111111111111111111111161616-141414-1313--------|
|-x-x-x-x-x-x-x-x-x-x-x-x-x-x-x-x-x-x-x-x-x-x-x-x-xxxxxx-xxxxxx-xxxx--------|
|-9-9-9-9-9-9-9-9-9-9-9-9-9-9-9-9-9-9-9-9-9-9-9-9-141414-121212-1111--------|
|---------------------------------------------------------------------------|
 Guitar 2
|---------------------------------------------------------------------------|
|---------------------------------------------------------------------------|
|-----------------7-7-7-7-7-7-7-7-----------------9-9-9-9-9-9-9-9-----------|
|-4-4-4-4-4-4-4-4-7-7-7-7-7-7-7-7-7-7-7-7-7-7-7-7-9-9-9-9-9-9-9-9-----------|
|-4-4-4-4-4-4-4-4-5-5-5-5-5-5-5-5-7-7-7-7-7-7-7-7-7-7-7-7-7-7-7-7-----------|
|-2-2-2-2-2-2-2-2-----------------5-5-5-5-5-5-5-5---------------------------|


Intro
Guitar 1  2x
|---------------------------------------------------------------------------------|
|---------------------------------------------------------------------------------|
|-----11-11---------------11-11-------9-9--11-11-9-9-----------11-11-9-9----------|
|-----------11-11-9-9-----------11-11----------------11-11-9-9-----------11-11-9-9|
|-9-9-----------------9-9---------------------------------------------------------|
|---------------------------------------------------------------------------------|

 Guitar 2 
|---------------------------------------------------------------------------------|
|---------------------------------------------------------------------------------|
|--------------------------------------------------------------7-7-7-7-7-7-7-7-7-7|
|-4-4-4-4-4-4-4-4-4-4-4-4-4-4-4-4-4-4-4-4--7-7-7-7-7-7-7-7-7-7-7-7-7-7-7-7-7-7-7-7|
|-4-4-4-4-4-4-4-4-4-4-4-4-4-4-4-4-4-4-4-4--7-7-7-7-7-7-7-7-7-7-5-5-5-5-5-5-5-5-5-5|
|-2-2-2-2-2-2-2-2-2-2-2-2-2-2-2-2-2-2-2-2--5-5-5-5-5-5-5-5-5-5--------------------|

|---------------------------------------------------------------------------------|
|---------------------------------------------------------------------------------|
|-1111111111111111111111111111111111111111---------------------7-7-7-7-7-7-7-7-7-7|
|-1111111111111111111111111111111111111111-7-7-7-7-7-7-7-7-7-7-7-7-7-7-7-7-7-7-7-7|
|-9-9-9-9-9-9-9-9-9-9-9-9-9-9-9-9-9-9-9-9--7-7-7-7-7-7-7-7-7-7-5-5-5-5-5-5-5-5-5-5|
|------------------------------------------5-5-5-5-5-5-5-5-5-5--------------------|

 Guitar 1
|---------------------------------------------------------------------------------------|
|---------------------------------------------------------------------------------------|
|-11-11-------9-9-------11-11-9-9-------------11-11-------9-9-------11-11-9-9-----------|
|-------11-11-----11-11-----------11-11-9-9---------11-11-----11-11-----------11-11-9-9-|
|---------------------------------------------------------------------------------------|
|---------------------------------------------------------------------------------------|
 Guitar 2
|---------------------------------------------------------------------------------------|
|---------------------------------------------------------------------------------------|
|---------------------------------------------------------------------------------------|
|-7-7-7-7-7-7-7-7-7-7-7-7-7-7-7-7-7-7-7-7-7---------------------------------------------|
|-5-5-5-5-5-5-5-5-5-5-5-5-5-5-5-5-5-5-5-5-5---4-4-4-4-4-4-4-4-4-4-4-4-4-4-4-4-4-4-4-4-4-|
|---------------------------------------------2-2-2-2-2-2-2-2-2-2-2-2-2-2-2-2-2-2-2-2-2-|

 Guitar 1
|---------------------------------------------------------------------------------------|
|---------------------------------------------10-10-----9-9-----10-10-------------------|
|-11-11-------9-9-------11-11-9-9-------------------9-9-----9-9-------9-9-10-10-12-12---|
|-------11-11-----11-11-----------11-11-9-9---------------------------------------------|
|---------------------------------------------------------------------------------------|
|---------------------------------------------------------------------------------------|
 Guitar2
|---------------------------------------------------------------------------------------|
|---------------------------------------------------------------------------------------|
|---------------------------------------------------------------------------------------|
|-7-7-7-7-7-7-7-7-7-7-7-7-7-7-7-7-7-7-7-7-7---9-9-9-9-9-9-9-9-9-9-9-9-9-9-9-9-9-9-9-9---|
|-5-5-5-5-5-5-5-5-5-5-5-5-5-5-5-5-5-5-5-5-5---7-7-7-7-7-7-7-7-7-7-7-7-7-7-7-7-7-7-7-7---|
|---------------------------------------------------------------------------------------|
                                              x x x x x x x x x x x x x

Verse

|---------------------------------------------------------------------------|
|---------------------------------------------------------------------------|
|--------7-7-7-7-7-7-7-----------------------7-7-7-7-7-7-7------------------|
|-4------7-7-7-7-7-7-7--7-7-7-7-7-7---4------7-7-7-7-7-7-7--7-7-7-7-7-7-7---|
|-4------5-5-5-5-5-5-5--7-7-7-7-7-7---4------5-5-5-5-5-5-5--7-7-7-7-7-7-7---|
|-2---------------------5-5-5-5-5-5---2---------------------5-5-5-5-5-5-5---|

 
|---------------------------------------------------------------------------|
|---------------------------------------------------------------------------|
|------------------------------7-------------9-9-9-9-9-9-9-9-9-9-9-9-9------|
|-4--------------7-------------7-------------9-9-9-9-9-9-9-9-9-9-9-9-9------|
|-4--------------7-------------5-------------7-7-7-7-7-7-7-7-7-7-7-7-7------|
|-2--------------5----------------------------------------------------------|
                                             x x x x x x x x



Chorus 2x
|---------------------------------------------------------------------------|
|---------------------------------------------------------------------------|
|-----------7-7-7-7-7-----------9-9-9-9-9-----------------------------------|
|-4-4-4-4-4-7-7-7-7-7-7-7-7-7-7-9-9-9-9-9-----------------------------------|
|-4-4-4-4-4-5-5-5-5-5-7-7-7-7-7-7-7-7-7-7-----------------------------------|
|-2-2-2-2-2-----------5-5-5-5-5---------------------------------------------|


 Guitar 1
|---------------------------------------------------------------------------|
|---------------------------------------------------------------------------|
|-111111111111111111111111111111111111111111111111131313-141414-1616--------|
|-x-x-x-x-x-x-x-x-x-x-x-x-x-x-x-x-x-x-x-x-x-x-x-x-xxxxxx-xxxxxx-xxxx--------|
|-9-9-9-9-9-9-9-9-9-9-9-9-9-9-9-9-9-9-9-9-9-9-9-9-111111-121212-1414--------|
|---------------------------------------------------------------------------|
 Guitar 2
|---------------------------------------------------------------------------|
|---------------------------------------------------------------------------|
|-----------------7-7-7-7-7-7-7-7-----------------9-9-9-9-9-9-9-9-----------|
|-4-4-4-4-4-4-4-4-7-7-7-7-7-7-7-7-7-7-7-7-7-7-7-7-9-9-9-9-9-9-9-9-----------|
|-4-4-4-4-4-4-4-4-5-5-5-5-5-5-5-5-7-7-7-7-7-7-7-7-7-7-7-7-7-7-7-7-----------|
|-2-2-2-2-2-2-2-2-----------------5-5-5-5-5-5-5-5---------------------------|

 Guitar 1
|---------------------------------------------------------------------------|
|---------------------------------------------------------------------------|
|-111111111111111111111111111111111111111111111111161616-141414-1313--------|
|-x-x-x-x-x-x-x-x-x-x-x-x-x-x-x-x-x-x-x-x-x-x-x-x-xxxxxx-xxxxxx-xxxx--------|
|-9-9-9-9-9-9-9-9-9-9-9-9-9-9-9-9-9-9-9-9-9-9-9-9-141414-121212-1111--------|
|---------------------------------------------------------------------------|
 Guitar 2
|---------------------------------------------------------------------------|
|---------------------------------------------------------------------------|
|-----------------7-7-7-7-7-7-7-7-----------------9-9-9-9-9-9-9-9-----------|
|-4-4-4-4-4-4-4-4-7-7-7-7-7-7-7-7-7-7-7-7-7-7-7-7-9-9-9-9-9-9-9-9-----------|
|-4-4-4-4-4-4-4-4-5-5-5-5-5-5-5-5-7-7-7-7-7-7-7-7-7-7-7-7-7-7-7-7-----------|
|-2-2-2-2-2-2-2-2-----------------5-5-5-5-5-5-5-5---------------------------|

 
Guitar 1
|---------------------------------------------------------------------------------|
|---------------------------------------------------------------------------------|
|-111111111-9-9-7-7-7-7-7-1111-1414141414141414-999-111111-131313-141414----------|
|-x-x-x-x-x-x-x-x-x-x-x-x-x-x--xxxxxxxxxxxxxxx--xxx-x-x-x--xxxxxx-xxxxxx----------|
|-9-9-9-9-9-7-7-5-5-5-5-5-9-9--1212121212121414-777-9-9-9--111111-121212----------|
|---------------------------------------------------------------------------------|
 Guitar 2
|---------------------------------------------------------------------------------|
|---------------------------------------------------------------------------------|
|---------------7-7-7-7-7-7-7-----------------------------------------------------|
|-4-4-4-4-4-4-4-7-7-7-7-7-7-7--7-7-7-7-7-7-7-7--222---222---222---222-------------|
|-4-4-4-4-4-4-4-5-5-5-5-5-5-5--7-7-7-7-7-7-7-7--222---222---222---222-------------|
|-2-2-2-2-2-2-2----------------5-5-5-5-5-5-5-5--000---000---000---000-------------|
                                                xx    xx    xx    xx
Guitar 1
|---------------------------------------------------------------------------------|
|---------------------------------------------------------------------------------|
|-111111111-9-9-7-7-7-7-7-1111-1414141414141414--9--------------------------------|
|-x-x-x-x-x-x-x-x-x-x-x-x-x-x--xxxxxxxxxxxxxxxx--x--------------------------------|
|-9-9-9-9-9-7-7-5-5-5-5-5-9-9--1212121212121414--7--------------------------------|
|---------------------------------------------------------------------------------|
 Guitar 2
|---------------------------------------------------------------------------------|
|---------------------------------------------------------------------------------|
|---------------7-7-7-7-7-7-7-----------------------------------------------------|
|-4-4-4-4-4-4-4-7-7-7-7-7-7-7--7-7-7-7-7-7-7-7---2--------------------------------|
|-4-4-4-4-4-4-4-5-5-5-5-5-5-5--7-7-7-7-7-7-7-7---2--------------------------------|
|-2-2-2-2-2-2-2----------------5-5-5-5-5-5-5-5---0--------------------------------|



Solo
 Guitar 1
|-------------------------------14----14------14-----14------14-----14---------------------------|
|---------------------------12b----12b----12b----12b----12b-----12b----17-17-14-17--17b-17b-17b*-|
|-6--6--6--6--9-9-6-9-9b*------------------------------------------------------------------------|
|------------------------------------------------------------------------------------------------|
|------------------------------------------------------------------------------------------------|
|------------------------------------------------------------------------------------------------|
 Guitar 2
|------------------------------------------------------------------------------------------------|
|------------------------------------------------------------------------------------------------|
|------------------------------------------------------------------------------------------------|
|-----------------------7-7-7-7-1111111111111111111111111111111111111-------------7-7-7-7-7-7-7--|
|-4-4-4-4-4-4-4-7-7-7-7-5-5-5-5-9-9-9-9-9-9-9-9-9-9-9-9-9-9-9-9-9-9-9-7-7-7-7-7-7-5-5-5-5-5-5-5--|
|-2-2-2-2-2-2-2-5-5-5-5-----------------------------------------------5-5-5-5-5-5----------------|

 Guitar 1
|------------------------------------------------------------------------------------------------|
|------------------------------------------------------------------------------------------------|
|-6-6-7-7-6-6----6-6-7-7-6-6---7br-6---7-6---4---6-6-7-7-6-6----6-6-7-7-6-6---7b-7b-9b-9b-11b-11b|
|-4-4---------4--4-4---------4-------7-----7-----4-4---------4--4-4---------4--------------------|
|------------------------------------------------------------------------------------------------|
|------------------------------------------------------------------------------------------------|
 Guitar 2
|------------------------------------------------------------------------------------------------|
|------------------------------------------------------------------------------------------------|
|------------------------------------------------------------------------------------------------|
|-----------------------7-7-7-7-1111111111111111111111111111111111111-------------7-7-7-7-7-7-7--|
|-4-4-4-4-4-4-4-7-7-7-7-5-5-5-5-9-9-9-9-9-9-9-9-9-9-9-9-9-9-9-9-9-9-9-7-7-7-7-7-7-5-5-5-5-5-5-5--|
|-2-2-2-2-2-2-2-5-5-5-5-----------------------------------------------5-5-5-5-5-5----------------|




Chorus 2x
|---------------------------------------------------------------------------|
|---------------------------------------------------------------------------|
|-----------7-7-7-7-7-----------9-9-9-9-9-----------------------------------|
|-4-4-4-4-4-7-7-7-7-7-7-7-7-7-7-9-9-9-9-9-----------------------------------|
|-4-4-4-4-4-5-5-5-5-5-7-7-7-7-7-7-7-7-7-7-----------------------------------|
|-2-2-2-2-2-----------5-5-5-5-5---------------------------------------------|


 Guitar 1
|---------------------------------------------------------------------------|
|---------------------------------------------------------------------------|
|-111111111111111111111111111111111111111111111111131313-141414-1616--------|
|-x-x-x-x-x-x-x-x-x-x-x-x-x-x-x-x-x-x-x-x-x-x-x-x-xxxxxx-xxxxxx-xxxx--------|
|-9-9-9-9-9-9-9-9-9-9-9-9-9-9-9-9-9-9-9-9-9-9-9-9-111111-121212-1414--------|
|---------------------------------------------------------------------------|
 Guitar 2
|---------------------------------------------------------------------------|
|---------------------------------------------------------------------------|
|-----------------7-7-7-7-7-7-7-7-----------------9-9-9-9-9-9-9-9-----------|
|-4-4-4-4-4-4-4-4-7-7-7-7-7-7-7-7-7-7-7-7-7-7-7-7-9-9-9-9-9-9-9-9-----------|
|-4-4-4-4-4-4-4-4-5-5-5-5-5-5-5-5-7-7-7-7-7-7-7-7-7-7-7-7-7-7-7-7-----------|
|-2-2-2-2-2-2-2-2-----------------5-5-5-5-5-5-5-5---------------------------|

 Guitar 1
|---------------------------------------------------------------------------|
|---------------------------------------------------------------------------|
|-111111111111111111111111111111111111111111111111161616-141414-1313---44---|
|-x-x-x-x-x-x-x-x-x-x-x-x-x-x-x-x-x-x-x-x-x-x-x-x-xxxxxx-xxxxxx-xxxx---44---|
|-9-9-9-9-9-9-9-9-9-9-9-9-9-9-9-9-9-9-9-9-9-9-9-9-141414-121212-1111---22---|
|---------------------------------------------------------------------------|
 Guitar 2
|---------------------------------------------------------------------------|
|---------------------------------------------------------------------------|
|-----------------7-7-7-7-7-7-7-7-----------------9-9-9-9-9-9-9-9------44---|
|-4-4-4-4-4-4-4-4-7-7-7-7-7-7-7-7-7-7-7-7-7-7-7-7-9-9-9-9-9-9-9-9------44---|
|-4-4-4-4-4-4-4-4-5-5-5-5-5-5-5-5-7-7-7-7-7-7-7-7-7-7-7-7-7-7-7-7------22---|
|-2-2-2-2-2-2-2-2-----------------5-5-5-5-5-5-5-5---------------------------|



| /  slide up
| \  slide down
| h  hammer-on
| p  pull-off
| x  Mute note
===============================================================================

            
            
Suggest correction
Creating personal tab
Creating personal tab
You can edit any tab online and save it as your Personal.

You can edit, replace or remove any tab part or add personal notes – all changes will be seen only by you.

Personal tabs can be accessed anytime from any device, even offline.
Learn more »
Give kudos to tab author, rate the tab!
1 2 3 4 5
comments
print report bad tab
2 comments total.
0 reply
afropunkx 92 Jul 09, 2009 06:48 AM

thanks so much 4 puttin this up cheers :D

0 reply
The Real AJ 325 Sep 02, 2009 01:18 PM

dammit its good but its so unecessarily long. lol

guest
You may want to rate the tab now too:
select rating
Wanna post a correction for this tab? Suggest correction