Oops, an error
Loading. Please wait.

Ghosts bass

version 1
version 1

Whole song

Interactive

140 views 1 this week
no commentswrite comment
1 2 3 4 5
3 more votes to show rating
add to favorites
×
Save as Personal and add changes to this tab that will be seen only by you. Learn more ›
×
You can save this tab as Personal to edit and correct it or add notes. All changes will be seen only by you. Learn more »
launch autoscroll
font size
0
reset
guitar tuner
edit
Autoscroll
slow
fast
+/-
esc
set tempo
stop
Author
Difficulty
================================================================================
                              A N T I M A T T E R

                                       -

                                  G H O S T S
================================================================================


                                  LEAVING EDEN
                        (c)  Prophecy Productions - 2007
                        http://www.antimatteronline.com/


                                 Standard Tuning
                                     E A D G

                                 Tempo = 116 BPM
                              Time Signature = 4/4



                          -----------------------------
                                 Transcribed by

                                 PADDY MCMULLAN
                           stinkypoohpants@yahoo.co.uk

                                   Version 1.0
                                11th October 2009
                             -----------------------

                             Tablature Symbols Used:


 ( )       -  Ghost Note/Tied Note/Implied Note
 5/7       -  Slide


================================================================================
Rest for 82 bars until the Lead Guitar section
================================================================================

================================================================================
Part I: Play once
================================================================================


Double bar lines indicate the beginning of each segment


  1                   2                     3
||-------------------|---------------------|----------------------|
||-------------------|---------------------|----------------------|
||--3----------------|---------------------|----------------------|
||-------------------|--3--3------------0--|--1------------1 / 3--|

 4                     5                      6
|---------------------|----------------------|-------------------|
|---------------------|----------------------|-------------------|
|---------------------|-------------7--------|-------------------|
|--5---------------5--|--5--5----5-----------|--5----------------|

 7                      8                     9
|---------------------||---------------------|---------------------|
|---------------------||---------------------|---------------------|
|---------------------||--3------------------|---------------------|
|--5--5------------5--||------------------0--|--3--3------------0--|

 10                     11                    12
|----------------------|---------------------|----------------------|
|----------------------|---------------------|----------------------|
|----------------------|---------------------|-------------7--------|
|--1------------1 / 3--|--5---------------5--|--5--5----5-----------|

 13                  14                     15
|-------------------|---------------------||-------------------|
|-------------------|---------------------||-------------------|
|-------------------|---------------------||--3----------------|
|--5----------------|--5--5---------------||-------------------|

 16                     17                     18
|----------------------|----------------------|--------------------|
|----------------------|----------------------|--------------------|
|----------------------|----------------------|--------------------|
|--3--3------------- \ |  1------------- / 3--|--5--------5--------|

 19                    20                  21
|---------------------|-------------------|--------------------------|
|---------------------|-------------------|--------------------------|
|------------7--------|-------------------|--------------------------|
|--5--5---------------|--5----------------|--5--5-------5--3--5 / 7--|

 22                  23                         24
|-------------------|-------------------------||-------------------|
|-------------------|-------------------------||-------------------|
|-------------------|-------------------------||-------------------|
|--0----------------|--0--0------5--3--5 / 7--||--0----------------|

 25
|-------------------||
|-------------------||
|-------------------||
|-(0)---------------||



================================================================================
Part II: Play once
================================================================================


  1                   2                       3
||-------------------|-----------------------|-------------------|
||-------------------|-----------------------|-------------------|
||-------------------|--------------------2--|--3----------------|
||--5----------------|--(5)------5--3--5-----|-------------------|

 4                    5                   6
|--------------------|-------------------|------------------------|
|--------------------|-------------------|------------------------|
|--(3)---------------|-------------------|------------------------|
|---------------3----|--0----------------|--(0)------5--3--5 / 7--|

 7                   8                         9
|-------------------|-------------------------|-------------------|
|-------------------|-------------------------|-------------------|
|-------------------|-------------------------|-------------------|
|--0----------------|-(0)-----0--5--3--5 / 7--|--5----------------|

 10                      11                   12
|-----------------------|--------------------|-------------------------|
|-----------------------|--------------------|-------------------------|
|--------------------2--|--3--------3--------|--3------3---------------|
|--(5)------5--3--5-----|--------------------|------------5--3--5 / 7--|

 13                   14
|--------------------|--------------------||
|--------------------|--------------------||
|--------------------|--------------------||
|--0--------0--------|--0--------0--------||



================================================================================
Outro: Play once
================================================================================


||-------------------|-------------------||
||-------------------|-------------------||
||--3----------------|-------------------||
||-------------------|--0----------------||



Allow the last note to ring out



================================================================================
End
================================================================================


Tab summary:        Part I x 1
                    Part II x 1
                    Outro x 1
                    
                    END

            
            
Suggest correction
Creating personal tab
Creating personal tab
You can edit any tab online and save it as your Personal.

You can edit, replace or remove any tab part or add personal notes – all changes will be seen only by you.

Personal tabs can be accessed anytime from any device, even offline.
Learn more »
Give kudos to tab author, rate the tab!
1 2 3 4 5
comments
print report bad tab
guest
You may want to rate the tab now too:
select rating
Wanna post a correction for this tab? Suggest correction