Oops, an error
Loading. Please wait.

Over Your Shoulder tab

169 views 12 this week
no commentswrite comment
1 2 3 4 5
3 more votes to show rating
add to favorites
×
Save as Personal and add changes to this tab that will be seen only by you. Learn more ›
×
You can save this tab as Personal to edit and correct it or add notes. All changes will be seen only by you. Learn more »
launch autoscroll
font size
0
reset
how to read this tab
guitar tuner
edit
Autoscroll
slow
fast
+/-
esc
set tempo
stop
Author
Difficulty
About this tab version
This is the second version with the addition of. Was this info helpful? Yes No
AM      G      D9      C       E
e|-0-------0------0-------0-------0-----------|
B|-1-------0------3-------1-------0-----------|
G|-2-------0------2-------0-------1-----------|
D|-2-------0------0-------2-------2-----------|
A|-0-------2--------------3-------2-----------|
E|---------3----------------------0-----------|

e|----------------|-------------|---------------|-------------|----|
B|-3h5--5---3-1-0-|---0---0h1-3-|-5--5---3-1-0--|---0---0h1-3-|-5--|
G|----------------|-2---2-------|---------------|-2-----------|----|
D|----------------|-------------|-0----0-0-0----|-------------|----|
A|-0------0-0-0---|-------------|---------------|-3---3-------|-0--|
E|----------------|-3---3-3-----|---------------|-------0-----|----|

[Verse]
Am  G           D9                      C      E
Cautiously take cover in the woodland - no mistakes at all.
Am   G            D9                          C    
Some terrain will catch you at your weakest - careful not to 
E
fall.

[Chorus]
Am                G
Stay by the fire, sip from your water,
D9                   C             E   
lie in position, the winds blowing colder.
Am                        G     
All these conditions will keep you from dying 
   D9                     C         E    
as long as you're looking over your shoulder.

[Verse]
Am   G        D9                      C              E     
Stay aware of echoes in the moonlight careful not to call.
Am    G         D9                    C                    E          
Don't engage in any kind of dreaming, conscious through it all.
Am G             D9                    C              E        
If in doubt find space beside A river, careful not to drown.
Am G                  D9                  C               E            
Stick it out, there's hope on the horizon keep from going down.

[Chorus]
Am                G  
Stay by the fire, sip from your water,
D9                   C             E     
lie in position, the winds blowing colder.
Am                        G    
All these conditions will keep you from dying
   D9                     C         E    
as long as you're looking over your shoulder.

            
            
Suggest correction
Creating personal tab
Creating personal tab
You can edit any tab online and save it as your Personal.

You can edit, replace or remove any tab part or add personal notes – all changes will be seen only by you.

Personal tabs can be accessed anytime from any device, even offline.
Learn more »
Give kudos to tab author, rate the tab!
1 2 3 4 5
comments
print report bad tab
guest
You may want to rate the tab now too:
select rating
Wanna post a correction for this tab? Suggest correction