Oops, an error
Loading. Please wait.

Eat More Possum album tab

40 views 1 this week
no commentswrite comment
1 2 3 4 5
3 more votes to show rating
add to favorites
×
Save as Personal and add changes to this tab that will be seen only by you. Learn more ›
×
You can save this tab as Personal to edit and correct it or add notes. All changes will be seen only by you. Learn more »
launch autoscroll
font size
0
reset
how to read this tab
guitar tuner
edit
Autoscroll
slow
fast
+/-
esc
set tempo
stop
1.Intro: The Cosmic Commander Of Wrestling. (No music)

**************************************************************************************************************

2.Today Your Love...

[Verses]
E-----------------------------------------|-----------------------------------|
B-----------------------------------------|-----------------------------------|
G-5-5-5-5---------8/9-9-8/9-9-8/9-9-8/9-9-|-5-5-5-5---------9-9-9-9-8/9-9-9-9-|
D-5-5-5-5-5-5-5-5-8/9-9-8/9-9-8/9-9-8/9-9-|-5-5-5-5-5-5-5-5-9-9-9-9-8/9-9-9-9-|
A-3-3-3-3-5-5-5-5-6/7-7-6/7-7-6/7-7-6/7-7-|-3-3-3-3-5-5-5-5-7-7-7-7-6/7-7-7-7-|
E---------3-3-3-3-------------------------|---------3-3-3-3-------------------|


E-----------------------------------------|-----------------------------------|
B-----------------------------------------|-----------------------------------|
G-5-5-5-5---------8/9-9-8/9-9-8/9-9-8/9-9-|-5-5-5-5---------9-9-9-9-8/9-9-9-9-|
D-5-5-5-5-5-5-5-5-8/9-9-8/9-9-8/9-9-8/9-9-|-5-5-5-5-5-5-5-5-9-9-9-9-8/9-9-9-9-|
A-3-3-3-3-5-5-5-5-6/7-7-6/7-7-6/7-7-6/7-7-|-3-3-3-3-5-5-5-5-7-7-7-7-6/7-7-7-7-|
E---------3-3-3-3-------------------------|---------3-3-3-3-------------------|


[Bridge] ("Little German Boy...")
E------------------|------------------|------------------|------------------|
B------------------|------------------|------------------|------------------|
G-7-7-7-7--9-9-9-9-|-7-7-7-7--9-9-9-9-|-7-7-7-7--9-9-9-9-|-7-7-7-7--9-9-9-9-|
D-7-7-7-7--9-9-9-9-|-7-7-7-7--9-9-9-9-|-7-7-7-7--9-9-9-9-|-7-7-7-7--9-9-9-9-|
A-5-5-5-5--7-7-7-7-|-5-5-5-5--7-7-7-7-|-5-5-5-5--7-7-7-7-|-5-5-5-5--7-7-7-7-|
E------------------|------------------|------------------|------------------|


Play it all 3 times in that exact order and that's the whole song


**************************************************************************************************************

3. Stormtrooper 

[Verse]
E------------------------------------------------------|
B------------------------------------------------------|
G-4-4-4-4-4-4-4-4-4--7-7-7-7--4-4-4-4-4-4-4-4-4--7-----|
D-4-4-4-4-4-4-4-4-4--7-7-7-7--4-4-4-4-4-4-4-4-4--7--7--|
A-2-2-2-2-2-2-2-2-2--5-5-5-5--2-2-2-2-2-2-2-2-2--5--7--|
E---------------------------------------------------5--|


[Chorus]
E------------------------------------|
B------------------------------------|
G-4---7-7--4---7-7--4---7-7--9-9-9-9-|
D-4---7-7--4---7-7--4---7-7--9-9-9-9-|
A-2---5-5--2---5-5--2---5-5--7-7-7-7-|
E------------------------------------|


Order:                                 End On:
Verse   x4                             E-------|
Chorus  x2                             B-------|
Verse   x3                             G--4----|
Chorus  x2                             D--4----|
Verse   x3                             A--2----|
Chorus  x4                             E-------|

**************************************************************************************************************

4. I've Aged 20 Years In 5

[Intro]
E---------------------------------|
B---------------------------------|
G---------------------------------|
D-5-5-5-5-5-5-5-5-5-5-5-5-5-5-5-5-|
A-5-5-5-5-5-5-5-5-5-5-5-5-5-5-5-5-|
E-3-3-3-3-3-3-3-3-3-3-3-3-3-3-3-3-|


[Main Part]                       x2  
E---------------------------------|---------------------------------------------------------|
B---------------------------------|---------------------------------------------------------|
G---------------------------------|-5-5-5-5-5-5-5-5---------5-5-5-5---------7-7-7-7---------|
D-5-5-5-5-5-5-5-5-5-5-5-5-5-5-5-5-|-5-5-5-5-5-5-5-5-5-5-5-5-5-5-5-5-5-5-5-5-7-7-7-7-5-5-5-5-|
A-5-5-5-5-5-5-5-5-5-5-5-5-5-5-5-5-|-3-3-3-3-3-3-3-3-5-5-5-5-3-3-3-3-5-5-5-5-5-5-5-5-5-5-5-5-|
E-3-3-3-3-3-3-3-3-3-3-3-3-3-3-3-3-|-----------------3-3-3-3---------3-3-3-3---------3-3-3-3-|


[Outro]
E---------------------------------|
B---------------------------------|
G---------7-7-7-7-----------------|
D-5-5-5-5-7-7-7-7-5-5-5-5-5-5-5-5-|
A-5-5-5-5-5-5-5-5-5-5-5-5-5-5-5-5-|
E-3-3-3-3---------3-3-3-3-3-3-3-3-|


Order is :
Intro       x1
Main Part   x5
Outro       x1

**************************************************************************************************************

5. Cactus Jack

[Intro]
E--------------------------|
B--------------------------|
G--------------------------|
D------9-------------------|
A------9-------------------|
E------7-------------------|


[Verse]
E----------------------------------------------------------------------|
B----------------------------------------------------------------------|
G----------------------------------------------------------------------|
D-9-7-9--9-7-9--9-7-9--9-7-9--9-7-9--9-7-9--9-7-9--9-7-9--9-7-9--9-7-9-|
A-9-7-9--9-7-9--9-7-9--9-7-9--9-7-9--9-7-9--9-7-9--9-7-9--9-7-9--9-7-9-|
E-7-5-7--7-5-7--7-5-7--7-5-7--7-5-7--7-5-7--7-5-7--7-5-7--7-5-7--7-5-7-|

E--------------------------------------------------------|
B--------------------------------------------------------|
G--9-7-9--9-7-9--9-7-9--9-7-9----------------------------|
D--9-7-9--9-7-9--9-7-9--9-7-9-9-7-9--9-7-9--9-7-9--9-7-9-|
A--7-5-7--7-5-7--7-5-7--7-5-7-9-7-9--9-7-9--9-7-9--9-7-9-|
E-----------------------------7-5-7--7-5-7--7-5-7--7-5-7-|


[Chorus]
E-------------------|
B-------------------|
G-11-------9--------|
D-11-------9--------|
A-9--------7--------|
E-------------------|


Order:
Intro
Verse
Chorus
Verse
Chorus

**************************************************************************************************************

6. Warning (no music)

**************************************************************************************************************

7. Animals... Eat Em

[Verse]
E--------------------------------------------|
B--------------------------------------------|
G-4-4--4-4--4-4-4--7-7--4-4--4-4--4-4-4------|
D-4-4--4-4--4-4-4--7-7--4-4--4-4--4-4-4-5--7-|
A-2-2--2-2--2-2-2--5-5--2-2--2-2--2-2-2-5--7-|
E---------------------------------------3--5-|


[Chorus]
E----------------------------------------|
B----------------------------------------|
G-4--7-7-7--4---------4--7-7-7--4--------|
D-4--7-7-7--4-5-5--5--4--7-7-7--4-5-5--7-|
A-2--5-5-5--2-5-5--5--2--5-5-5--2-5-5--7-|
E-------------3-3--3--------------3-3--5-|

Listen for Order

**************************************************************************************************************

8.Glad I Am The Way I Am

[Verse]
E---------------------------------------------------------|
B---------------------------------------------------------|
G-----------------------5-5-5-----------------------7-7-5-|
D-7-7-7---7-7-7---7-7-7-5-5-5-7-7-7---7-7-7---7-7-7-7-7-5-|
A-7-7-7---7-7-7---7-7-7-3-3-3-7-7-7---7-7-7---7-7-7-5-5-3-|
E-5-5-5---5-5-5---5-5-5-------5-5-5---5-5-5---5-5-5-------|


[Chorus]
E---------------------|---------------------|---------------------|---------------------|
B---------------------|---------------------|---------------------|---------------------|
G-----7-5-------9-9-7-|-----7-5-------9-9-7-|-----7-5-------9-9-7-|-----7-5-------9-9-7-|
D-7-7-7-5-7-7-7-9-9-7-|-7-7-7-5-7-7-7-9-9-7-|-7-7-7-5-7-7-7-9-9-7-|-7-7-7-5-7-7-7-9-9-7-|
A-7-7-5-3-7-7-7-7-7-5-|-7-7-5-3-7-7-7-7-7-5-|-7-7-5-3-7-7-7-7-7-5-|-7-7-5-3-7-7-7-7-7-5-|
E-5-5-----5-5-5-------|-5-5-----5-5-5-------|-5-5-----5-5-5-------|-5-5-----5-5-5-------|

Just listen for the order

**************************************************************************************************************

9.The Dean Of Sods Speaks (No Music)

**************************************************************************************************************

10. Jack Starr (No Music)

**************************************************************************************************************

11. Destroy Them All

[Intro]
E-----------------------------------------------------------------|
B-----------------------------------------------------------------|
G-----------------------------------------------------------------|
D-4---------------2---------------4---------------2---------------|
A-4---------------2---------------4---------------2---------------|
E-2---------------0---------------2---------------0---------------|


[Verse]                             
E-----------------------------------|
B-----------------------------------|
G-----------------------------------|
D-4--4-2---4--4-2---4--4-2---4--4-2-|
A-4--4-2---4--4-2---4--4-2---4--4-2-|
E-2--2-0---2--2-0---2--2-0---2--2-0-|


[Chorus]
E---------------------------------------------------|
B---------------------------------------------------|
G-4-------------------------------------------------|
D-4---------------4--4-2---4--4-2---4--4-2---4--4-2-|
A-2-(hold)--------4--4-2---4--4-2---4--4-2---4--4-2-|
E-----------------2--2-0---2--2-0---2--2-0---2--2-0-|


Order:
Intro
Verse  x5 
Chorus x2
Verse  x5
Chorus x2
Verse  x5
Chorus x2
Verse  x5

**************************************************************************************************************

12. Shittin' In High Cotton

[Intro]
E----------------------------------------------------------------|
B----------------------------------------------------------------|
G----------------------------------------------------------------|
D-9-------------------------------7------------------------------|
A-9-------------------------------7------------------------------|
E-7-------------------------------5------------------------------|

E----------------------------------------------------------------|
B----------------------------------------------------------------|
G-9-------------------------------------------------9------7-----|
D-9-------------------------------9-----------------9------7-----|
A-7-------------------------------9-----------------7------5-----|
E---------------------------------7------------------------------|


[Verse]
E----------------------------------------------------------------|
B----------------------------------------------------------------|
G----------------------------------------------------------------|
D-9-------9-------9-------9-------7-------7-------7-------7------|
A-9-------9-------9-------9-------7-------7-------7-------7------|
E-7-------7-------7-------7-------5-------5-------5-------5------|

E----------------------------------------------------------------|
B----------------------------------------------------------------|
G-9-------9-------9-------9-------------------------9------7-----|
D-9-------9-------9-------9-------9-------9---------9------7-----|
A-7-------7-------7-------7-------9-------9---------7------5-----|
E---------------------------------7-------7----------------------|


[Chorus 1]                                         x5
E---------------------------------------------------|--------------|
B---------------------------------------------------|--------------|
G-7--------9----------------------------------------|-9------7-----|
D-7--------9--------9-------9-------9-------9-------|-9------7-----|
A-5--------7--------9-------9-------9-------9-------|-7------5-----|
E-------------------7-------7-------7-------7-------|--------------|


[Chorus 2]                                        x12
E---------------------------------------------------|
B---------------------------------------------------|
G-7--------9----------------------------------------|
D-7--------9--------9-------9-------9-------9-------|
A-5--------7--------9-------9-------9-------9-------|
E-------------------7-------7-------7-------7-------|


Order 
Intro (bass only for the 1st 2 bars, then you play the intro once)
Verse x2
1st Chorus  
Verse x2
2nd Chorus  

**************************************************************************************************************

13. Star Whore

[Intro]                                              x2
E-----------------------------------------------------|
B-----------------------------------------------------|
G-----------7----------7--------------7----------7----|
D-9-9-9-9-7-7--9-9-9-9-7-7--9-9-9-9-7-7--9-9-9-9-7-7--|
A-9-9-9-9-7-5--9-9-9-9-5-7--9-9-9-9-7-5--9-9-9-9-5-7--|
E-7-7-7-7-5----7-7-7-7---5--7-7-7-7-5----7-7-7-7---5--|

[Verse]                                              x4
E-----------------------------------------------------|
B-----------------------------------------------------|
G-----------7----------7--------------7----------7----|
D-9-9-9-9-7-7--9-9-9-9-7-7--9-9-9-9-7-7--9-9-9-9-7-7--|
A-9-9-9-9-7-5--9-9-9-9-5-7--9-9-9-9-7-5--9-9-9-9-5-7--|
E-7-7-7-7-5----7-7-7-7---5--7-7-7-7-5----7-7-7-7---5--|

[Chorus]                                                             x2
E---------------------------------------------------------------------|
B---------------------------------------------------------------------|
G---------------------------------------------------------------------|
D-9----------------7----------------5----------------7----------------|
A-9----------------7----------------5----------------7----------------|
E-7----------------5----------------3----------------5----------------|

[After 1st Chorus]
E-----------------------------------------------------------------|
B-----------------------------------------------------------------|
G-----------------------------------------------------------------|
D-9-9-9-9-9-9-9-9-9-9-9-9-9-9-9-9-9-9-9-9-9-9-9-9-9-9-9-9-9-9-9-9-|
A-9-9-9-9-9-9-9-9-9-9-9-9-9-9-9-9-9-9-9-9-9-9-9-9-9-9-9-9-9-9-9-9-|
E-7-7-7-7-7-7-7-7-7-7-7-7-7-7-7-7-7-7-7-7-7-7-7-7-7-7-7-7-7-7-7-7-|

[Verse]                                              x5
E-----------------------------------------------------|
B-----------------------------------------------------|
G-----------7----------7--------------7----------7----|
D-9-9-9-9-7-7--9-9-9-9-7-7--9-9-9-9-7-7--9-9-9-9-7-7--|
A-9-9-9-9-7-5--9-9-9-9-5-7--9-9-9-9-7-5--9-9-9-9-5-7--|
E-7-7-7-7-5----7-7-7-7---5--7-7-7-7-5----7-7-7-7---5--|

[Chorus]                                                             x2
E---------------------------------------------------------------------|
B---------------------------------------------------------------------|
G---------------------------------------------------------------------|
D-9----------------7----------------5----------------7----------------|
A-9----------------7----------------5----------------7----------------|
E-7----------------5----------------3----------------5----------------|

[Outro]
E-----------------------------------------------------|--------|
B-----------------------------------------------------|--------|
G-----------7----------7--------------7----------7----|--------|
D-9-9-9-9-7-7--9-9-9-9-7-7--9-9-9-9-7-7--9-9-9-9-7-7--|-9------|
A-9-9-9-9-7-5--9-9-9-9-5-7--9-9-9-9-7-5--9-9-9-9-5-7--|-9------|
E-7-7-7-7-5----7-7-7-7---5--7-7-7-7-5----7-7-7-7---5--|-7------|

That's the whole song, in order too

**************************************************************************************************************

14. Break It Off

Whole Song
E---------------------------------------------|
B---------------------------------------------|
G--------5-5--------7-5--------5-5--------7-5-|
D-7-7-7--5-5-7-7-7--7-5-7-7-7--5-5-7-7-7--7-5-|
A-7-7-7--3-3-7-7-7--5-3-7-7-7--3-3-7-7-7--5-3-|
E-5-5-5------5-5-5------5-5-5------5-5-5------|

That's the whole song. 

**************************************************************************************************************

15. Jack B. Gets Framed (No Music)

**************************************************************************************************************

16. Trapped In Dixie

[Verse]
E---------------------------------|
B---------------------------------|
G-7-7-7-7-7-7-7-7-----------------|
D-7-7-7-7-7-7-7-7-5-5-5-5-7-7-7-7-|
A-5-5-5-5-5-5-5-5-5-5-5-5-7-7-7-7-|
E-----------------3-3-3-3-5-5-5-5-|


[Chorus]         x4 
E-----------------|-----------------|
B-----------------|-----------------|
G-5-5-5-5-7-7-7-7-|-9-9-9-9-9-9-9-9-|
D-5-5-5-5-7-7-7-7-|-9-9-9-9-9-9-9-9-|
A-3-3-3-3-5-5-5-5-|-7-7-7-7-7-7-7-7-|
E-----------------|-----------------|

Just Listen For Order

**************************************************************************************************************

17. Fuck All Y'All

   C#5                                                   E5      F#5
E|-----------------|-----------------|-----------------|-----------------|
B|-----------------|-----------------|-----------------|-----------------|
G|-----------------|-----------------|-----------------|-9-------11------|
D|-11--11-11-11-11-|-11--11-11-11-11-|-11--11-11-11-11-|-9-------11------|
A|-11--11-11-11-11-|-11--11-11-11-11-|-11--11-11-11-11-|-7--------9------|
E|--9---9--9--9--9-|--9---9--9--9--9-|--9---9--9--9--9-|-----------------|

Riff 2:

   C#5    E5   F#5   C#5    E5   F#5   C#5    E5   F#5   C#5   F#5    B
E|-----------------|-----------------|-----------------|-----------------|
B|-----------------|-----------------|-----------------|-----------------|
G|--------9----11--|--------9----11--|--------9----11--|-------11--------|
D|-11-----9----11--|-11-----9----11--|-11-----9----11--|-11----11-----9--|
A|-11-----7-----9--|-11-----7-----9--|-11-----7-----9--|-11-----9-----9--|
E|--9--------------|--9--------------|--9--------------|--9-----------7--|


E|-----------------|-----------------|-----------------|-----------------|
B|-----------------|-----------------|-----------------|-----------------|
G|-----------------|-----------------|-----------------|-----------------|
D|-11~-------------|-11~-------------|-----------------|-----------------|
A|-11~-------------|-11~-------------|-----------------|-----------------|
E|--9~-------------|--9~-------------|-----------------|-----------------|
                             "Fuck All Y'All!"
Listen For Order

**************************************************************************************************************

18. Jack Starr #2 (No Music)

            
            
Suggest correction
Creating personal tab
Creating personal tab
You can edit any tab online and save it as your Personal.

You can edit, replace or remove any tab part or add personal notes – all changes will be seen only by you.

Personal tabs can be accessed anytime from any device, even offline.
Learn more »
Give kudos to tab author, rate the tab!
1 2 3 4 5
comments
print report bad tab
guest
You may want to rate the tab now too:
select rating
Wanna post a correction for this tab? Suggest correction