Oops, an error
Loading. Please wait.

Dancing On The Inside bass

498 views 1 this week
1 commentread comment
1 2 3 4 5
1 last vote to show rating
add to favorites
×
Save as Personal and add changes to this tab that will be seen only by you. Learn more ›
×
You can save this tab as Personal to edit and correct it or add notes. All changes will be seen only by you. Learn more »
launch autoscroll
font size
0
reset
guitar tuner
edit
Autoscroll
slow
fast
+/-
esc
set tempo
stop
i got this off the forum site and put it on here so it was easier to get to enjoy its pretty right...

www.antiskeptic.com




G||------------------------------|-------------------------------|
D||------------------------------|-------------------------------|
A||--0--12--0--12--0--12--0--12--|--0--12--0--12--0--12--14--15--|
D||------------------------------|-------------------------------|


 E   E  E   E  E   E  E   E      E   E   E   E   E   E   E   E  
------------------------------|----------------------------------|
------------------------------|------12------12------12------12--|
--0--15--0--15--0--15--0--15--|--12------12------12------12------|
------------------------------|----------------------------------|


 E   E  E   E  E   E  E   E     E   E  E   E  E   E   E   E  
------------------------------|-------------------------------|
------------------------------|-------------------------------|
--0--12--0--12--0--12--0--12--|--0--12--0--12--0--12--14--15--|
------------------------------|-------------------------------|


 E   E  E   E  E   E  E   E      E   E   E   E   E   E   E   E  
------------------------------|----------------------------------|
------------------------------|------12------12------12------14--|
--0--15--0--15--0--15--0--15--|--12------12------12------12------|
------------------------------|----------------------------------|


 E   E  E   E  E   E  E   E     E   E  E   E  E   E   E   E  
------------------------------|-------------------------------|
------------------------------|-------------------------------|
--0--12--0--12--0--12--0--12--|--0--12--0--12--0--12--14--15--|
------------------------------|-------------------------------|


 E   E  E   E  E   E  E   E      E   E   E   E   E   E   E   E  
------------------------------|----------------------------------|
------------------------------|------12------12------12------14--|
--0--15--0--15--0--15--0--15--|--12------12------12------12------|
------------------------------|----------------------------------|


 E   E  E   E  E   E  E   E     E   E  E   E  E   E   E   E  
------------------------------|-------------------------------|
------------------------------|-------------------------------|
--0--12--0--12--0--12--0--12--|--0--12--0--12--0--12--14--15--|
------------------------------|-------------------------------|


 E   E  E   E  E   E  E   E      E   E   E   E   E   E   E   E  
------------------------------|----------------------------------|
------------------------------|------12------12------12------14--|
--0--15--0--15--0--15--0--15--|--12------12------12------12------|
------------------------------|----------------------------------|


 E  Q    E  Q    E  E     E  E  Q    E  Q    E     Q    E  Q    E  E  E  
------------------------|------------------------|------------------------|
------------------------|------------------------|------------------------|
--0--0----3--3----------|-----3--3----0--0----3--|--3------------3--3--2--|
------------------0--0--|--L---------------------|-------0--0-------------|


 E  Q    E  Q    E  E     E  E  Q    E  Q    E     Q    E  Q    E  E  E  
------------------------|------------------------|------------------------|
------------------------|------------------------|------------------------|
--0--0----3--3----------|-----3--3----0--0----3--|--3------------3--3--2--|
------------------0--0--|--L---------------------|-------0--0-------------|


 E   E   E   E   Q    E   E      E  E   E   E   E   E   E  E  
---------14------14-----------|--14---------14--12-------------|
------------------------------|---------------------14--10--9--|
--0--12---L--12---L----0--12--|------0--12---------------------|
------------------------------|--------------------------------|


 E   E   E  E   E   E  E   E      E  E   E   E   E   E   E  E  
---------14---------14---------|--14---------14--12-------------|
-------------------------------|---------------------14--10--9--|
--0--12------0--12------0--12--|------0--12---------------------|
-------------------------------|--------------------------------|


 E  E  E  E  E  E  E  E     E  E  E  E    E   E   E   E  
--------------------------|-------------------------------|
--------------------------|--------------/13--13--13--13--|
--0--3--0--3--0--3--0--3--|--0--5--0--5-------------------|
--------------------------|-------------------------------|


 E   E   E  E   E   E  E   E      E  E   E   E   E   E   E  E  
---------14---------14---------|--14---------14--12-------------|
-------------------------------|---------------------14--10--9--|
--0--12------0--12------0--12--|------0--12---------------------|
-------------------------------|--------------------------------|


 E   E   E  E   E   E  E   E      E  E   E   E   E   E   E  E  
---------14---------14---------|--14---------14--12-------------|
-------------------------------|---------------------14--10--9--|
--0--12------0--12------0--12--|------0--12---------------------|
-------------------------------|--------------------------------|


 E   E   E  E   E   E  E   E      E  E   E   E   E   E   E  E  
---------14---------14---------|--14---------14--12-------------|
-------------------------------|---------------------14--10--9--|
--0--12------0--12------0--12--|------0--12---------------------|
-------------------------------|--------------------------------|


 E  E  E  E  E  E  E  E     E  E  E  E    E   E   E   E  
--------------------------|-------------------------------|
--------------------------|--------------/13--13--13--13--|
--0--3--0--3--0--3--0--3--|--0--5--0--5-------------------|
--------------------------|-------------------------------|


 E   E   E  E   E   E  E   E      E   E   E   E   E   E   Q    
---------14---------14---------|--14--12------------------12----|
-------------------------------|----------14--12----------------|
--0--12------0--12------0--12--|------------------15--12--------|
-------------------------------|--------------------------------|


 E  E  E  E  E  E  E  E     E  E  E  E   E  E  E  E  
--------------------------|---------------------------|
--------------------------|---------------------------|
--------------------------|--------------/5--5--5--5--|
--3--3--3--3--3--3--3--3--|--3--3--3--3---------------|


 E  E  E  E  E  E  E  E     E  E  E  E  E  E  E  E  
--------------------------|--------------------------|
--------------------------|--------------------------|
--0--0--0--0--0--0--0--0--|--0--0--0--0--0-----------|
--------------------------|-----------------2--2--2--|


 E  E  E  E  E  E  E  E     E  E  E  E   E  E  E  E  
--------------------------|---------------------------|
--------------------------|---------------------------|
--------------------------|--------------/5--5--5--5--|
--3--3--3--3--3--3--3--3--|--3--3--3--3---------------|


 E  E  E  E  E  E  E  E     W                                    
--------------------------|-------------------|-------------------|
--7-----------------------|-------------------|-------------------|
--------------------------|-------------------|-------------------|
--------------------------|-------------------|-------------------|


 E   E   E  E   E   E  E   E      E  E   E   E  E   E   E   E  
---------14---------12---------|--------------------------------|
-------------------------------|--15---------12-----------------|
--0--12------0--12------0--12--|------0--12------0--12--15--14--|
-------------------------------|--------------------------------|


 E   E   E  E   E   E  E   E      E  E   E   E  E   E   E   E  
---------14---------12---------|--------------------------------|
-------------------------------|--15---------12-----------------|
--0--12------0--12------0--12--|------0--12------0--12--15--14--|
-------------------------------|--------------------------------|


 E  E  E  E  E  E  E  E     E  E  E  E    E   E   E   E  
--------------------------|-------------------------------|
--------------------------|--------------/13--13--13--13--|
--0--3--0--3--0--3--0--3--|--0--5--0--5-------------------|
--------------------------|-------------------------------|


 E   E   E  E   E   E  E   E      E  E   E   E  E   E   E   E  
---------14---------12---------|--------------------------------|
-------------------------------|--15---------12-----------------|
--0--12------0--12------0--12--|------0--12------0--12--15--14--|
-------------------------------|--------------------------------|


 E   E   E  E   E   E  E   E      E  E   E   E  E   E   E   E  
---------14---------12---------|--------------------------------|
-------------------------------|--15---------12-----------------|
--0--12------0--12------0--12--|------0--12------0--12--15--14--|
-------------------------------|--------------------------------|


 E   E   E  E   E   E  E   E      E  E   E   E  E   E   E   E  
---------14---------12---------|--------------------------------|
-------------------------------|--15---------12-----------------|
--0--12------0--12------0--12--|------0--12------0--12--15--14--|
-------------------------------|--------------------------------|


 E  E  E  E  E  E  E  E     E  E  E  E    E   E   E   E  
--------------------------|-------------------------------|
--------------------------|--------------/13--13--13--13--|
--0--3--0--3--0--3--0--3--|--0--5--0--5-------------------|
--------------------------|-------------------------------|


 E   E   E  E   E   E  E   E      E  E   E   E  E   E   E   E  
---------14---------12---------|--------------------------------|
-------------------------------|--15---------12-----------------|
--0--12------0--12------0--12--|------0--12------0--12--15--14--|
-------------------------------|--------------------------------|


 E   E   E  E   E   E  E   E      E  E   E   E  E   E   E   E  
---------14---------12---------|--------------------------------|
-------------------------------|--15---------12-----------------|
--0--12------0--12------0--12--|------0--12------0--12--15--14--|
-------------------------------|--------------------------------|


 E   E   E  E   E   E  E   E      E  E   E   E  E   E   E   E  
---------14---------12---------|--------------------------------|
-------------------------------|--15---------12-----------------|
--0--12------0--12------0--12--|------0--12------0--12--15--14--|
-------------------------------|--------------------------------|


 E  E  E  E  E  E  E  E     E  E  E  E    E   E   E   E  
--------------------------|-------------------------------|
--------------------------|--------------/13--13--13--13--|
--0--3--0--3--0--3--0--3--|--0--5--0--5-------------------|
--------------------------|-------------------------------|


 E   E   E  E   E   E  E   E      E  E   E   E  E   E   E   E  
---------14---------12---------|--------------------------------|
-------------------------------|--15---------12-----------------|
--0--12------0--12------0--12--|------0--12------0--12--15--14--|
-------------------------------|--------------------------------|


 E   E   E  E   E   E  E   E      E   E   E   E   E   E   Q      
---------14---------14---------|--14--12------------------12----||
-------------------------------|----------14--12----------------||
--0--12------0--12------0--12--|------------------15--12--------||
-------------------------------|--------------------------------||




Duration Legend
---------------
W - whole
H - half
Q - quarter
E - 8th
S - 16th
T - 32nd
X - 64th
. - note dotted
|-n-|  - n-tuplets 

            
            
Suggest correction
Creating personal tab
Creating personal tab
You can edit any tab online and save it as your Personal.

You can edit, replace or remove any tab part or add personal notes – all changes will be seen only by you.

Personal tabs can be accessed anytime from any device, even offline.
Learn more »
Give kudos to tab author, rate the tab!
1 2 3 4 5
comments
print report bad tab
1 comment total.
0 reply
Bass Patriot 156 Oct 18, 2007 01:30 AM

ok... its all correct... but where the hell is the solo? the bass solo! WHERE IS IT?!?!?!?

guest
Wanna post a correction for this tab? Suggest correction