Oops, an error
Loading. Please wait.

Yksinainen chords

version 1
version 1

Whole song

3,947 views 12 this week
2 commentsread comments
1 2 3 4 5
1 last vote to show rating
add to favorites
×
Save as Personal and add changes to this tab that will be seen only by you. Learn more ›
×
You can save this tab as Personal to edit and correct it or add notes. All changes will be seen only by you. Learn more »
launch autoscroll
font size
0
reset
transpose
0
reset
display chords
guitar tuner
edit
Autoscroll
slow
fast
+/-
esc
set tempo
stop
Strumming
There is no strumming pattern for this song yet. and get +5 IQ
Antti Tuisku - Yksinäinen


           G
Voi olispa aikaa 
           D
Jo kulunut tarpeeksi 
          Em
Kuukaudet menneet
             C
Ja sydän ois ehjä
          G                D          G
Tai ettei ois hän lähtenyt sittenkään pois 
               G
Peiton alla on kuuma
           D
Sä haluat piiloutua 
          Em
Kaikki on auki 
           C
Ja puhelin kiinni 
          G              D          G 
Mut sä et jää, siihen et kuitenkaan jää



CHORUS

         G        D
Jokainen yö vie aamuun 
Em         C
Jokainen yksinäinen 
G               D          G
Valon jos sytyttää maailma herää



Tuolla on joku toinen 
Se vielä ei tunne sua 
Sinä et usko 
Mut se ei sinusta riipu 
Et mitään voi, mitään et kuitenkaan voi 
Se tulee sua vastaan 
Kävelee samaan huoneeseen 
Kaikki on uutta 
Ja samalla vanhaa 
Et mitään voi, mitään et sillekkään voi 


CHORUS

Jokainen yö vie aamuun ...
                    

             G            D
Hei jokainen yö vie aamua päin
             Em                 C          G
Sä luulet et sua varten ei rakkautta oo enempää
              D                G
Mut se vielä tulee , etkä voi mitää 


Voi olispa aikaa
Jo kulunu tarpeeksi 
Kuukaudet menneet
Ja sydän ois ehjä 
Tai ettei ois hän lähtenyt sittenkään pois



Nauttikaa biisistä (:

-Kaisy

            
            
Suggest correction
Creating personal tab
Creating personal tab
You can edit any tab online and save it as your Personal.

You can edit, replace or remove any tab part or add personal notes – all changes will be seen only by you.

Personal tabs can be accessed anytime from any device, even offline.
Learn more »
Give kudos to tab author, rate the tab!
1 2 3 4 5
comments
print report bad tab
2 comments total.
+1 reply
iewhfidhf1 10 Mar 26, 2017 01:17 PM

Here you are!
G D
e|----3------3------3-------3------5------5-------5-------5-------|
B|-3------3------3------3------3-------3------3-------3-----------|
G|----------------------------------------------------------------|
D|----------------------------------------------------------------|
A|----------------------------------------------------------------|
E|----------------------------------------------------------------|
Em C
e|----3------3------3-------3------3------3-------3------3--------|
B|-0------0------0------0------1-------1------1------1------------|
G|----------------------------------------------------------------|
D|----------------------------------------------------------------|
A|----------------------------------------------------------------|
E|----------------------------------------------------------------|
G D
e|----3------3------3-------3------5------5-------5------5--------|
B|-3------3------3------3------3-------3------3------3------------|
G|----------------------------------------------------------------|
D|----------------------------------------------------------------|
A|----------------------------------------------------------------|
E|----------------------------------------------------------------|
G
e|----3------3------3-------3------3------3------3--------3-------|
B|-3------3------3------3------3-------3------3------3------------|
G|----------------------------------------------------------------|
D|----------------------------------------------------------------|
A|----------------------------------------------------------------|
E|----------------------------------------------------------------|

0 reply
kohinaa 11,917 Apr 01, 2017 04:18 PM

Perfect! Thanks!

guest
You may want to rate the tab now too:
select rating
Wanna post a correction for this tab? Suggest correction