Oops, an error
Loading. Please wait.

Dont Worry ukulele

54 views 1 this week
no commentswrite comment
1 2 3 4 5
3 more votes to show rating
add to favorites
×
Save as Personal and add changes to this tab that will be seen only by you. Learn more ›
×
You can save this tab as Personal to edit and correct it or add notes. All changes will be seen only by you. Learn more »
launch autoscroll
font size
0
reset
transpose
0
reset
simplify chords
display chords
guitar tuner
edit
Autoscroll
slow
fast
+/-
esc
set tempo
stop
Strumming
There is no strumming pattern for this song yet. and get +5 IQ
-------------------------------------------------------------------------------
                             Don't Worry - Appleton
-------------------------------------------------------------------------------
Album: Everything's Eventual
Tabbed by: Ed Briscombe
Email: edb@xmail.net

Tuning: Standard (E A D G B E)
The strumming pattern is consistantley V V V V^ ^V V V^V^

Chords used:
    B, B*, E, F#msus4, Gadd9, Aadd9,
Esus
 E F#msus4 B G add 9 A add 9 B*
 0 0       X 3       5       7
 2 4       2 5       7       8
 2 4       4 5       7       9 
 1 2       4 4       6       9
 0 0       4 0       0       7
 0 0       2 0       0       7

Intro: B F#msus4 E E

 B                      F#msus4               E          E  
downstroke)
 Don't worry cause I'll always be there for you  (in the heavens above)

First Verse:

 B                    F#msus4    E                           B
 I just needed you to comfort me and I have tried to make it right

 B                      F#msus4
 And I dont know that I feel so sure

 E                          B
 But I think that we missed out

 B                F#msus4
 So Ive sung this song for you

 E                             B
 And I just want you to say to me

On the first bend of this lick, pre-bend the string on the 10th fret of the A string up
a B and pull it back to an A, on

the second bend, do the reverse and bend the note  upwards as a normal bend, adding a
vibrato at the end, then play

exactly the same thing over the E and B chords.

First Lick:
                   F#msus4    E                     B
 E|-----------------------------------------------------|
 B|--7-(12)10-7-10(12)~--------------7-(12)10-7-10(12)~-|
 G|-----------------------------------------------------|
 D|-----------------------------------------------------|
 A|-----------------------------------------------------|
 E|-----------------------------------------------------|

Chorus:

  B                     F#msus4               E  E
  Dont worry cause I'll always be there for you  (In the heavens above)

  B                     F#msus4               E  E
  Dont worry cause I'll always be there for you  (In the heavens above)

  B                     F#msus4               E  E
  Dont worry cause I'll always be there for you  (always be there)

Second Verse:

Second Lick:For this lick just slide from the 8th fret on the A string to the 11--|th fret

 E|-----------------------------------------------------------------------|
 B|-----------------------------------------------------------------------|
 G|--8-8/11---------------------------------------------------------------|
 D|-----------------------------------------------------------------------|
 A|-----------------------------------------------------------------------|
 E|-----------------------------------------------------------------------|

  B                       F#msus4
  And all I wanted was to stand alone

  E                                 B
  So is there a place that we could meet

Third Lick:

 E|----------------------------| The bend in this lick is also pre-bent.
 B|----------------------------|
 G|-8-8s11-11/13-11------------|
 D|-------------------(12)11-9-|
 A|----------------------------|
 E|----------------------------|
  B                        F#msus4
  And you see this face within your face

  E                        B
  And I stayed away but Im back to hear you say

First Lick:
                   F#msus4    E                     B
 E|-----------------------------------------------------|
 B|--7-(12)10-7-10(12)~--------------7-(12)10-7-10(12)~-|
 G|-----------------------------------------------------|
 D|-----------------------------------------------------|
 A|-----------------------------------------------------|
 E|-----------------------------------------------------|

Chorus:

  B                     F#msus4               E  E
  Dont worry cause I'll always be there for you  (In the heavens above)

  B                     F#msus4               E  E
  Dont worry cause I'll always be there for you  (In the heavens above)

  B                     F#msus4               E  E
  Dont worry cause I'll always be there for you  (always be there)

For this bridge part of the song play the G and the A as you would a normal bar chord
curl your finger over the top five

strings leaving the top two strings open and pressing only on the root note on the
string, then flatten your finger

when you get to the B and play as a normal bar chord.

         G add9                A add9            B*
  In the heavens above,heavens above,heavens above

                            G add9                                    Aadd9
  Can you hear me? (Can you hear me?) through the spaces (Through the spaces)

                          B*
  Wandering in this wonderland

           G6          F#msus4           ESus          E (one downstroke)
  And if I try to understand this broken man              (Broken man)


  B                     F#msus4               E  E (second half of lick 1)
  Dont worry cause I'll always be there for you  (In the heavens above)(broken man)

  B                     F#msus4               E  E
  Dont worry cause I'll always be there for you  (always be there)(Broken man)

  B                     F#msus4        E           B
  In the heavens,in the heavens,in the heavens for you

       F#msus4   E
  Yeah yeah,yeah yeah
       B         F#msus4
  Yeah yeah,yeah yeah
       E         B (one downstroke)
  Yeah yeah,yeah yeah

| /  slide up
| \  slide down
| H  hammer-on
| p  pull-off
| ~  vibrato
| +  harmonic
| x  Mute note
===============================================================================

            
            
Suggest correction
Creating personal tab
Creating personal tab
You can edit any tab online and save it as your Personal.

You can edit, replace or remove any tab part or add personal notes – all changes will be seen only by you.

Personal tabs can be accessed anytime from any device, even offline.
Learn more »
Give kudos to tab author, rate the tab!
1 2 3 4 5
comments
print report bad tab
guest
Wanna post a correction for this tab? Suggest correction