Oops, an error
Loading. Please wait.

Dear Angel tab

version 2
version 2

Whole song

Interactive

5,517 views 1 this week
2 commentsread comments
1 2 3 4 5
x 5
add to favorites
×
Save as Personal and add changes to this tab that will be seen only by you. Learn more ›
×
You can save this tab as Personal to edit and correct it or add notes. All changes will be seen only by you. Learn more »
launch autoscroll
font size
0
reset
how to read this tab
guitar tuner
edit
Autoscroll
slow
fast
+/-
esc
set tempo
stop
Author
Band: April Sixth
Song: Dear Angel
Album: In Memory

Tabbed by: Basse93
Tuning: Standard

e|--4-4-x-4-4-4-4--------------------------------------------|
B|--5-5-x-5-5-5-5--------------------------------------------|
G|--6-6-x-6-6-6-6-6-6-x-6-6-6-6-8-8-x-8-8-x-9-9-x-8-8-8-8----|
D|--6-6-x-6-6-6-6-7-7-x-7-7-7-7-9-9-x-9-9-x-9-9-x-9-9-9-9----|
A|--4-4-x-4-4-4-4-7-7-x-7-7-7-7-9-9-x-9-9-x-9-9-x-9-9-9-9----|
E|----------------5-5-x-5-5-5-5-7-7-x-7-7-x-7-7-x-7-7-7-7----| X6


Backround electric:
e|-------------------------------|
B|-----9----9--------------------|
G|--8h9--8h9--9-8-9p8--8h9-8-----|
D|-------------------9-----------|
A|-------------------------------|
E|-------------------------------|
Play at beginning of second time above.


 Electric with distortion:
e|-4-4-4-4-4-4-4-4----------------------------------------------------|
B|-5-5-5-5-5-5-5-5----------------------------------------------------|
G|-6-6-6-6-6-6-6-6-6-6-6-6-6-6-6-6-8-8-8-8-8-8-8-8-8-8-8-8-8-8-8-8----|
D|-6-6-6-6-6-6-6-6-7-7-7-7-7-7-7-7-9-9-9-9-9-9-9-9-9-9-9-9-9-9-9-9----|
A|-4-4-4-4-4-4-4-4-7-7-7-7-7-7-7-7-9-9-9-9-9-9-9-9-9-9-9-9-9-9-9-9----|
E|-----------------5-5-5-5-5-5-5-5-7-7-7-7-7-7-7-7-7-7-7-7-7-7-7-7----| X2

e|-4-x-x-4-x-x-4-x----------------------------------------------------|
B|-5-x-x-5-x-x-5-x----------------------------------------------------|
G|-6-x-x-6-x-x-6-x-6-x-x-6-x-x-6-x-8-x-x-8-x-x-8-x-9-9-x-8-x-x-8-x----|
D|-6-x-x-6-x-x-6-x-7-x-x-7-x-x-7-x-9-x-x-9-x-x-9-x-9-9-x-9-x-x-9-x----|
A|-4-x-x-4-x-x-4-x-7-x-x-7-x-x-7-x-9-x-x-9-x-x-9-x-9-9-x-9-x-x-9-x----|
E|-----------------5-x-x-5-x-x-5-x-7-x-x-7-x-x-7-x-7-7-x-7-x-x-7-x----| X2


Background electric:
e|---------------|
B|---------------|
G|-9-8-9-11-9-8-9|
D|---------------|
A|---------------|
E|---------------|
Play together with the 8 last chords above.


Electric mute:
e|-4-4-4-4-4-4-4-4----------------------------------------------------|
B|-5-5-5-5-5-5-5-5----------------------------------------------------|
G|-6-6-6-6-6-6-6-6-6-6-6-6-6-6-6-6-8-8-8-8-8-8-8-8-8-8-8-8-8-8-8-8----|
D|-6-6-6-6-6-6-6-6-7-7-7-7-7-7-7-7-9-9-9-9-9-9-9-9-9-9-9-9-9-9-9-9----|
A|-4-4-4-4-4-4-4-4-7-7-7-7-7-7-7-7-9-9-9-9-9-9-9-9-9-9-9-9-9-9-9-9----|
E|-----------------5-5-5-5-5-5-5-5-7-7-7-7-7-7-7-7-7-7-7-7-7-7-7-7----| X4
The last 8 chords are not mute after the second time.


Backround electric:
e|-------------------------------|
B|-----9----9--------------------|
G|--8h9--8h9--9-8-9p8--8h9-8-----|
D|-------------------9-----------|
A|-------------------------------|
E|-------------------------------|
Play at the beginning of second time above.


Electric with distortion:
e|-4-4-4-4-4-4-4-4----------------------------------------------------|
B|-5-5-5-5-5-5-5-5----------------------------------------------------|
G|-6-6-6-6-6-6-6-6-6-6-6-6-6-6-6-6-8-8-8-8-8-8-8-8-8-8-8-8-8-8-8-8----|
D|-6-6-6-6-6-6-6-6-7-7-7-7-7-7-7-7-9-9-9-9-9-9-9-9-9-9-9-9-9-9-9-9----|
A|-4-4-4-4-4-4-4-4-7-7-7-7-7-7-7-7-9-9-9-9-9-9-9-9-9-9-9-9-9-9-9-9----|
E|-----------------5-5-5-5-5-5-5-5-7-7-7-7-7-7-7-7-7-7-7-7-7-7-7-7----| X14


Background electric:
e|-----------------------------------------------------------------------------|
B|-----------------------------------------------------------------------------|
G|6-6-6-6-6-6-6-6-8-8-8-8-8-8-8-8-9-9-9-9-9-9-9-9-11^12-11-11-11^12-11-11-11^12|
D|-----------------------------------------------------------------------------|
A|-----------------------------------------------------------------------------|
E|-----------------------------------------------------------------------------|
Play after 5th time playing the chords above.


e|---------------------------------------------------------------------------|
B|--9-9-9-----------------------------------9-9-9-9-9------------------------|
G|--------9-9-9-8-8-8-9-9-9-9-9-9-8-8-9-9-9-----------9-9-9-8-8-8-8-8--------|
D|---------------------------------------------------------------------------|
A|---------------------------------------------------------------------------|
E|---------------------------------------------------------------------------|

e|---------------------------------------|
B|-----9----9----------------------------|
G|--8h9--8h9--9-8h9--9p8--9p8--9p8--9p8--|
D|-----------------9----9----9----9----9-|
A|---------------------------------------|
E|---------------------------------------|
Play after 8th time playing the chords above.


e|-------------------------------|
B|-----9----9--------------------|
G|--8h9--8h9--9-8-9p8--8h9-8-----|
D|-------------------9-----------|
A|-------------------------------|
E|-------------------------------|
Play after 10th time playing the chords above.


Electric mute:
e|-4-4-4-4-4-4-4-4----------------------------------------------------|
B|-5-5-5-5-5-5-5-5----------------------------------------------------|
G|-6-6-6-6-6-6-6-6-6-6-6-6-6-6-6-6-8-8-8-8-8-8-8-8-8-8-8-8-8-8-8-8----|
D|-6-6-6-6-6-6-6-6-7-7-7-7-7-7-7-7-9-9-9-9-9-9-9-9-9-9-9-9-9-9-9-9----|
A|-4-4-4-4-4-4-4-4-7-7-7-7-7-7-7-7-9-9-9-9-9-9-9-9-9-9-9-9-9-9-9-9----|
E|-----------------5-5-5-5-5-5-5-5-7-7-7-7-7-7-7-7-7-7-7-7-7-7-7-7----| X2


At the end play this and hold it:
e|-4-|
B|-5-|
G|-6-|
D|-6-|
A|-4-|
E|---|


Lyrics:

Dear angel of mine, yeah,
Where do I start to express how I feel,
Well loves gone blind, and all that I feel is what I hear,
Your words rip and tear, through my heart so weak and pure,
And I find myself wanting to die...

Chorus:
I bleed for the second time tonight,
Holding the love thats in my mind,
If only my love could be with you,
If only this pain, this pain, died too.

So I break you away, away, away from me, from me(x2)

As I sit here alone, oh
Just thinking 'bout everything that you said,
Since I'm alone, well maybe after all I was better off dead,
Cause without you my life's gone down, what do I do?
When I find myself wanting to die...

Chorus(x2)

I'll break you away, this freak I became, my enemy,
This freak I became, my enemy, from my angel
to my enemy, and I don't know.

Chorus(x2)

I'll break you away(all thats in my mind)
So break you away(and all thats in my life)
So break you away, away, away from me,
So break you away, away, away from me,
And I don't know...

(Sincerely yours)


| /  slide up
| \  slide down
| h  hammer-on
| p  pull-off
| ~  vibrato
| +  harmonic
| x  Mute note
| ^  Bend note
===============================================================================

            
            
Suggest correction
Creating personal tab
Creating personal tab
You can edit any tab online and save it as your Personal.

You can edit, replace or remove any tab part or add personal notes – all changes will be seen only by you.

Personal tabs can be accessed anytime from any device, even offline.
Learn more »
comments
print report bad tab
2 comments total.
0 reply
guitarandbass43 10 Feb 22, 2009 02:26 PM

Nice, there is a easier way to play this though

0 reply
Basse93 134 Feb 23, 2009 06:17 AM

Thanx :) Yeah I know there is a easier way.. But this is the way they play it on the video though. :P But again: There is a easier way ;) e.g: "Chords". C#m, A B. :P

guest
You may want to rate the tab now too:
select rating
Wanna post a correction for this tab? Suggest correction