Oops, an error
Loading. Please wait.

My Oh My tab

version 1
version 1

Whole song

Interactive

by Aqua
1,249 views 1 this week
no commentswrite comment
1 2 3 4 5
3 more votes to show rating
add to favorites
×
Save as Personal and add changes to this tab that will be seen only by you. Learn more ›
×
You can save this tab as Personal to edit and correct it or add notes. All changes will be seen only by you. Learn more »
launch autoscroll
font size
0
reset
how to read this tab
guitar tuner
edit
Autoscroll
slow
fast
+/-
esc
set tempo
stop
Author
Difficulty
Tabbers playing skills
-------------------------------------------------------------------------------
                             MY OH MY - Aqua
-------------------------------------------------------------------------------
Tabbed by: metallhead
Email: homesticky@gmail.com

Tuning: E A D G B E



Gtr I (E A D G B E) - 'Keys'
Gtr II (E A D G B E) - 'Keys'
Gtr III (E A D G B E) - 'Voice'
Gtr IV (E A D G B E) - 'Synth'
Gtr V (E A D G B E) - 'Synth'

  Q=133
 4/4
  Gtr I
  W          W          W          E E   Q       Q   Q
|----------|----------|----------|-----------------------|
|----------|----------|----------|-----------------------|
|----------|----------|----------|-----------------------|
|----------|----------|----------|-----------------------|
|----------|----------|----------|-1-------------3-------|
|----------|----------|----------|-----------------------|
|
| Gtr II
| W          W          W          E S S S S S S E E E E
|----------|----------|----------|-1-----1---6---------3-|
|----------|----------|----------|-3---3---------5---5---|
|----------|----------|----------|---3-------------5-----|
|----------|----------|----------|-----------------------|
|----------|----------|----------|-----------------------|
|----------|----------|----------|-----------------------|


  E E   E   E   E   E   E   E   E E   Q       Q   Q     E E E E E   E   E   E
|-----------------------------|-----------------------|------------------------|
|-----------------------------|-----------------------|------------------------|
|-----------------------------|-----------------------|------------------------|
|-----------------------------|-----------------------|-------------3---5---7--|
|-0---------0---5---5---7---8-|-----------------------|---------5--------------|
|-----------------------------|-6-------------8-------|-5-----5----------------|
|
| E S S S S S S S S S S S S E   E S S S S S S E E E E   E E E E S S S S S S E
|-----------5-----------------|-----------6-------3---|-8-6-5-3---1-1-1-1------|
|-5-----5-------6-6-6-6-6-----|-6-----6-------5-----5-|---------3-3-3-3-3------|
|-5---5-----------9-9-9-9-----|-7---7-----------5-----|------------------------|
|---7-------------------------|---8-------------------|------------------------|
|-----------------------------|-----------------------|------------------------|
|-----------------------------|-----------------------|------------------------|


  E E   Q       Q   Q     E E   E   E   E   E   E   E   E E   Q       Q   Q
|-----------------------|-----------------------------|------------------------|
|-----------------------|-----------------------------|------------------------|
|-----------------------|-----------------------------|------------------------|
|-----------------------|-----------------------------|------------------------|
|-----------------------|---------------5---5---7---8-|------------------------|
|-6-------------8-------|-5---------5-----------------|-6-------------8--------|
|
| E S S S S S S E E E E   E S S S S S S S S S S S S E   E S S S S S S E E E E
|-1-----1---6---------3-|-----------5-----------------|-----------6-------3----|
|-3---3---------5---5---|-5-----5-------6-6-6-6-6-----|-6-----6-------5-----5--|
|---3-------------5-----|-5---5-----------9-9-9-9-----|-7---7-----------5------|
|-----------------------|---7-------------------------|---8--------------------|
|-----------------------|-----------------------------|------------------------|
|-----------------------|-----------------------------|------------------------|
|
| Gtr III
| Q     Q       Q   E E   E E   E   E   Q       E   E   Q     Q       E E E E
|-------5-------3---3-1-|-3-1---3---5-----------------|-------5-------3-1-3-1--|
|-3---------------------|---------------3-----------3-|-3----------------------|
|-----------------------|-----------------------------|------------------------|
|-----------------------|-----------------------------|------------------------|
|-----------------------|-----------------------------|------------------------|
|-----------------------|-----------------------------|------------------------|


  E E E E  E   E   E   E    E E    Q       Q   Q
|------------------------|-------------------------|
|------------------------|-------------------------|
|------------------------|-------------------------|
|--------------3---5---7-|-------------------------|
|----------5-------------|-------------------------|
|-5-----5----------------|--6--------------8-------|
|
| E E E E  S S S S S S E    E S S  S S S S E E E E
|-8-6-5-3----1-1-1-1-----|--1------1---6---------3-|
|----------3-3-3-3-3-----|--3---3----------5---5---|
|------------------------|----3--------------5-----|
|------------------------|-------------------------|
|------------------------|-------------------------|
|------------------------|-------------------------|
|
| Q   Q    Q       Q        Q      Q       Q   E E
|-3---8------------------|-------------------------|
|---------10-------------|--------10-------8---8-6-|
|------------------------|-------------------------|
|------------------------|-12----------------------|
|------------------------|-------------------------|
|------------------------|-------------------------|


  E E   E    E    E   E   E    E
|---------------------------------|
|---------------------------------|
|---------------------------------|
|---------------------------------|
|-----------------5---5---7----8--|
|-5----------5--------------------|
|
| E S S S S  S S  S S S S S S  E
|------------5--------------------|
|-5-----5---------6-6-6-6-6-------|
|-5---5-------------9-9-9-9-------|
|---7-----------------------------|
|---------------------------------|
|---------------------------------|
|
| E E   E    E    Q       E    E
|---------------------------------|
|-8-6---8---10--------------------|
|---------------------------------|
|----------------12-----------12--|
|---------------------------------|
|---------------------------------|


   E E    Q       Q   Q     E E Q    Q       Q
|-------------------------|------------------------|
|-------------------------|------------------------|
|-------------------------|------------------------|
|-------------------------|------------------------|
|-------------------------|------------------------|
|--6--------------8-------|-5--------5-------------|
|
|  E S S  S S S S E E E E   E E E E  S S S S S S E
|-------------6-------3---|-8-6-5-3----0-0-0-0-----|
|--6------6-------5-----5-|----------2-2-2-2-2-----|
|--7---7------------5-----|------------------------|
|----8--------------------|------------------------|
|-------------------------|------------------------|
|-------------------------|------------------------|
|
|  Q      Q       E E E E   Q   Q    H
|-------------------------|-----8------------------|
|-10-----10-------8-6-8-6-|-8-------10-------------|
|-------------------------|------------------------|
|-------------------------|------------------------|
|-------------------------|------------------------|
|-------------------------|------------------------|


  W
|-----------------------------|
|-----------------------------|
|-----------------------------|
|-----------------------------|
|-----------------------------|
|-----------------------------|
|
| E S S S S S S  S  S S S Q
|-----------3-3--3--3-3-------|
|-----2-5-----5--5--5-5-5-----|
|---2-------------------------|
|-----------------------------|
|-----------------------------|
|-----------------------------|
|
| Q     E   E   +E    E   E E
|-----------------------------|
|-----------8---(8)---8---6-5-|
|-----------------------------|
|-----------------------------|
|-----------------------------|
|-----------------------------|


                                     Gtr V
  E   E   E   E    E    E    E   E   H     H        H       H
|----------------------------------|--------------|----------------|
|-----------------------2----3-----|--------------|----------------|
|-------------0----2----2----------|--------------|----------------|
|-0---2---3---3----6---------------|--------------|----------------|
|-4---5---7------------------------|--------------|---------5------|
|----------------------------------|-6-----8------|-5--------------|
|
| S S S S S S S S  S S  S S  S S E   W              W
|-------------------------9-10-----|--------------|----------------|
|-3-2-3-5-6-5-6-8-10-9-10----------|--------------|----------------|
|----------------------------------|--------------|----------------|
|----------------------------------|--------------|----------------|
|----------------------------------|--------------|----------------|
|----------------------------------|--------------|----------------|
|
| H                H                 Q  Q  Q  E E   E E E E Q  E E
|----------------------------------|----5--3--3-1-|-3-1-3-5--------|
|-3--------------------------------|-3------------|---------3----3-|
|----------------------------------|--------------|----------------|
|----------------------------------|--------------|----------------|
|----------------------------------|--------------|----------------|
|----------------------------------|--------------|----------------|


  Gtr III
   Q  Q   E E E E    Q  Q   Q  Q     Q   Q   Q  E E    E E E  E  Q  E  E
|-----5---3-1-3-1-|--3--8---------|-----------------|--------------------|
|--3--------------|--------10-----|-----10---8--8-6-|--8-6-8-10----------|
|-----------------|---------------|-----------------|--------------------|
|-----------------|---------------|-12--------------|-----------12----12-|
|-----------------|---------------|-----------------|--------------------|
|-----------------|---------------|-----------------|--------------------|
|
| Gtr IV
|  H      H          H      H        H       H         H         H
|-----------------|---------------|-----------------|--------------------|
|---------8-------|--------10-----|----------8------|-----------10-------|
|-10------9-------|--9-----10-----|-10-------9------|--9--------10-------|
|-12-----10-------|-10-----12-----|-12------10------|-10--------12-------|
|-----------------|-12------------|-----------------|-12-----------------|
|-----------------|---------------|-----------------|--------------------|
|
| Gtr V
|  H      H          H      H        H       H         H         H
|-----------------|---------------|-----------------|--------------------|
|-----------------|---------------|-----------------|--------------------|
|-----------------|---------------|-----------------|--------------------|
|-----------------|---------------|-----------------|--------------------|
|-----------------|---------5-----|-----------------|------------5-------|
|--6------8-------|--5------------|--6-------8------|--5-----------------|


   Q   Q   E E E E    Q  Q   H
|------------------|-----8--------|
|-10--10---8-6-8-6-|--8-----10----|
|------------------|--------------|
|------------------|--------------|
|------------------|--------------|
|------------------|--------------|
|
|  H       H          H      H
|------------------|--------------|
|----------8-------|--------10----|
|-10-------9-------|--9------9----|
|-12------10-------|-10-----11----|
|------------------|-12-----------|
|------------------|--------------|
|
|  H       H          W
|------------------|--------------|
|------------------|--------------|
|------------------|--------------|
|------------------|--------------|
|------------------|--------------|
|--6-------8-------|--5-----------|


  Gtr I
    E     E     E    E    E    E    E    E
|---------------------------------------------|
|---------------------------------------------|
|---------------------------------------------|
|---3-----------------------------------------|
|---------5-----7--------------0--------------|
|--------------------9---10---------9----5----|
|
|  +H.                              Q
|---------------------------------------------|
|-(10)----------------------------------------|
|--(9)----------------------------------------|
|-(11)----------------------------------------|
|---------------------------------------------|
|---------------------------------------------|
|
| Gtr II
|   S  S  S  S  S S  S S  S S  S S  S S  S S
|--17-----------------------------------------|
|--------18-18-20-----------------------------|
|-------------------21---22--------21---------|
|-----------------------------24--------23----|
|---------------------------------------------|
|---------------------------------------------|


  Gtr III
   E  E  E E  E E  E  E    E  E  E  E Q  E  E
|-----------------------|---------------------|
|-----------------------|---------------------|
|-10-10-10---10---10-10-|-10------------------|
|-----------------------|----12-12-12------10-|
|-----------------------|---------------------|
|-----------------------|---------------------|


   E  E  E  E E E  E E   E E E E H
|----------------------|--------------|
|---------------8-10---|-8------------|
|-10-10-10-10----------|---9-9-9------|
|----------------------|--------------|
|----------------------|--------------|
|----------------------|--------------|


   E  E  E  E E  E E E   Q  E E Q  Q    E E E E +E  E E  E   Q  E E Q  Q
|----------------------|--------------|--------------------|--------------|
|------------------8---|-6------------|-6-6-6-6-(6)-6-8-10-|-8------------|
|-10-10-10-10---10-----|----7---7-----|--------------------|----9---9-----|
|----------------------|--------------|--------------------|--------------|
|----------------------|--------------|--------------------|--------------|
|----------------------|--------------|--------------------|--------------|


   E  E  E  E E  E E  E    E  E  E  E  E E  E E
|-----------------------|-----------------------|
|-----------------------|-----------------------|
|-----------------------|-----------------------|
|-----------------------|-----------------------|
|----------12------8-10-|----10-10-12-10-8------|
|----10-10------10------|------------------10-8-|
|
| Gtr IV
|  W                       W
|-----------------------|-----------------------|
|-----------------------|-----------------------|
|-10--------------------|-10--------------------|
|-12--------------------|-12--------------------|
|-12--------------------|-13--------------------|
|-----------------------|-----------------------|


   E E E E E E E  E    E  E  E  E  Q   Q
|-------------------|---------------------|
|-------------------|---------------------|
|-------------------|---------------------|
|--------7----------|---------------------|
|------8-------8-10-|----10-10-12---------|
|----8-------8------|-------------13--12--|
|
|  W                   W
|-------------------|---------------------|
|-------------------|---------------------|
|-10----------------|--9------------------|
|-10----------------|-10------------------|
|-12----------------|-10------------------|
|-------------------|---------------------|


   E  E E E E E E E    E E E E E E E E    E E E E E E E E    E E E E Q  Q
|-------------------|------------------|------------------|----------------|
|-------------------|------------------|------------------|----------------|
|-------------------|------------------|--------2---------|----------------|
|---------7-----3-5-|----5-5-7-5-3-----|------3-------3-5-|----5-5-7-------|
|-------8-----5-----|--------------5-3-|----3-------3-----|----------8--7--|
|----10-------------|------------------|------------------|----------------|
|
|  W                   W                  W                  W
|-------------------|------------------|------------------|----------------|
|-------------------|------------------|------------------|----------------|
|-10----------------|-10---------------|-10---------------|--9-------------|
|-12----------------|-12---------------|-10---------------|-10-------------|
|-12----------------|-13---------------|-12---------------|-10-------------|
|-------------------|------------------|------------------|----------------|


  Gtr I                                  Gtr III
    E      E    E   E   E   E    E   E    Q  Q   Q  E E    E E E E  Q  E E
|--------------------------------------|-----5---3--3-1-|--3-1-3-5---------|
|---------------------------2----3-----|----------------|-----------3----3-|
|-------------------0---2---2----------|--7-------------|------------------|
|---0------2----3---3---6--------------|----------------|------------------|
|---4------5----7----------------------|----------------|------------------|
|--------------------------------------|----------------|------------------|
|
| Gtr II                                 Gtr V
|   S   S  S  S S S S S S S S S  S S E    H      H         H        H
|---------------1-0-1-3-5-4-5-9-10-----|----------------|------------------|
|--------------------------------------|----------------|------------------|
|--------------------------------------|----------------|------------------|
|--------------------------------------|----------------|------------------|
|--------------------------------------|----------------|-----------5------|
|--22--21-22-24------------------------|--6------8------|--5---------------|
|
| Gtr IV
|  +Q           Q       H                 H      H         H        H
|--------------------------------------|----------------|------------------|
|--------------------------------------|---------8------|----------10------|
|--(9)---------------------------------|-10------9------|--9-------10------|
|-(10)---------------------------------|-12-----10------|-10-------12------|
|-(10)---------------------------------|----------------|-12---------------|
|--------------------------------------|----------------|------------------|


   Q  Q   E E E E    Q  Q   Q  Q     Q   Q   Q  E E    E E E  E  Q  E  E
|-----5---3-1-3-1-|--3--8---------|-----------------|--------------------|
|--3--------------|--------10-----|-----10---8--8-6-|--8-6-8-10----------|
|-----------------|---------------|-----------------|--------------------|
|-----------------|---------------|-12--------------|-----------12----12-|
|-----------------|---------------|-----------------|--------------------|
|-----------------|---------------|-----------------|--------------------|
|
| Gtr IV
|  H      H          H      H        H       H         H         H
|-----------------|---------------|-----------------|--------------------|
|---------8-------|--------10-----|----------8------|-----------10-------|
|-10------9-------|--9-----10-----|-10-------9------|--9--------10-------|
|-12-----10-------|-10-----12-----|-12------10------|-10--------12-------|
|-----------------|-12------------|-----------------|-12-----------------|
|-----------------|---------------|-----------------|--------------------|
|
| Gtr V
|  H      H          H      H        H       H         H         H
|-----------------|---------------|-----------------|--------------------|
|-----------------|---------------|-----------------|--------------------|
|-----------------|---------------|-----------------|--------------------|
|-----------------|---------------|-----------------|--------------------|
|-----------------|---------5-----|-----------------|------------5-------|
|--6------8-------|--5------------|--6-------8------|--5-----------------|


  Gtr I
   W                W
|-----------------|-------------|
|-----------------|-------------|
|-----------------|-------------|
|-----------------|-------------|
|-----------------|-------------|
|-----------------|-------------|
|
| Gtr II
|  W                W
|-----------------|-------------|
|-----------------|-------------|
|-----------------|-------------|
|-----------------|-------------|
|-----------------|-------------|
|-----------------|-------------|
|
| Gtr III
|  Q   Q  E E E E   Q  Q   H
|-----------------|----8--------|
|-10--10--8-6-8-6-|-8-----10----|
|-----------------|-------------|
|-----------------|-------------|
|-----------------|-------------|
|-----------------|-------------|


   E     E     E     E     E      E     E    E
|-------------------------------------------------|
|-------------------------------------------------|
|---------------------------------------0---------|
|--------------------0-----2------3-----2----3----|
|--0-----2-----4-----4-----5------7---------------|
|--4-----5-----7----------------------------------|
|
|  S  S  S  S  S  S  S  S  S   S  S  S  S  S S S
|--------------------------------------------1-3--|
|-------------------------------------------------|
|-------------------------------------------------|
|-------------------------------------------------|
|-12-11-12-14-16-14-16-17-19--17-19-20-22---------|
|-----------------------------------------24------|
|
|  Q           E     E    +E      E     E    E
|-------------------------------------------------|
|--------------------8----(8)-----8-----6----5----|
|-------------------------------------------------|
|-------------------------------------------------|
|-------------------------------------------------|
|-------------------------------------------------|


  E E   E E   E E   E E      E  E   E E    E  E   E E
|-------------------------|-----------------------------|
|-------------------------|-----------------------------|
|-------------------------|-----------------------------|
|-5-----------------------|-----------------------------|
|-5-----5-----5-----5-----|-----------------------------|
|-------------------------|--6------6------6------6-----|
|
| E S S E S S E S S E S S    E  S S E S S  E  S S E S S
|---1-----1-----1-----1---|-----1-----1-------1-----1---|
|---3-----3-----3-----3---|-----3-----3-------3-----3---|
|-------------------------|-----------------------------|
|-------------------------|-----------------------------|
|-------------------------|-----------------------------|
|-------------------------|-----------------------------|
|
| H           E E   E E     +E  E   E E   +E  E   E E
|-------------------5-3---|-(3)-5-----3---(3)-3---1-0---|
|-3-------------3---------|-----------------------------|
|-------------------------|-----------------------------|
|-------------------------|-----------------------------|
|-------------------------|-----------------------------|
|-------------------------|-----------------------------|


  E E   E E   E E   E E
|--------------------------|
|--------------------------|
|--------------------------|
|--------------------------|
|--------------------------|
|-8-----8-----8-----8------|
|
| E S S E S S E S S E S S
|---1-----1-----1-----1----|
|---1-----1-----1-----1----|
|--------------------------|
|--------------------------|
|--------------------------|
|--------------------------|
|
| H           E E   E E
|-------------------5-3----|
|-1-------------1----------|
|--------------------------|
|--------------------------|
|--------------------------|
|--------------------------|


   E  E   E E    E  E   E E      E E    E E    E E    E E
|-----------------------------|-----------------------------|
|-----------------------------|-----------------------------|
|-----------------------------|-----------------------------|
|-----------------------------|-----------------------------|
|-----------------------------|-----------------------------|
|--8------8------8------8-----|-10-----10-----10-----10-----|
|
|  E  S S E S S  E  S S E S S    E S S  E S S  E S S  E S S
|-----0-----0-------0-----0---|----1------1------1------1---|
|-----1-----1-------1-----1---|----3------3------3------3---|
|-----------------------------|-----------------------------|
|-----------------------------|-----------------------------|
|-----------------------------|-----------------------------|
|-----------------------------|-----------------------------|
|
| +E  E   E E   +E  E   E E      H             E E    E E
|-(3)-5-----3---(3)-3---1-0---|-----------------------5-3---|
|-----------------------------|--3---------------3----------|
|-----------------------------|-----------------------------|
|-----------------------------|-----------------------------|
|-----------------------------|-----------------------------|
|-----------------------------|-----------------------------|


   E  E   E E    E  E   E E
|------------------------------|
|------------------------------|
|------------------------------|
|------------------------------|
|------------------------------|
|--6------6------6------6------|
|
|  E  S S E S S  E  S S E S S
|-----1-----1-------1-----1----|
|-----3-----3-------3-----3----|
|------------------------------|
|------------------------------|
|------------------------------|
|------------------------------|
|
| +E  E   E E   +E  E   E E
|-(3)-5-----3---(3)-3---1-0----|
|------------------------------|
|------------------------------|
|------------------------------|
|------------------------------|
|------------------------------|


  E E   E E   E E   E E      W              W                W
|-------------------------|---------------|----------------|---------------|
|-------------------------|---------------|----------------|---------------|
|-------------------------|---------------|----------------|---------------|
|-------------------------|---------------|----------------|---------------|
|-------------------------|---------------|----------------|---------------|
|-8-----8-----8-----8-----|---------------|----------------|---------------|
|
| E S S E S S E S S E S S    W              W                W
|---1-----1-----1-----1---|---------------|----------------|---------------|
|---1-----1-----1-----1---|---------------|----------------|---------------|
|-------------------------|---------------|----------------|---------------|
|-------------------------|---------------|----------------|---------------|
|-------------------------|---------------|----------------|---------------|
|-------------------------|---------------|----------------|---------------|
|
| H           E E   E E     +E  E Q  H      E E E E Q  E E   Q  E E Q.   E
|-------------------5-3---|-(3)-5---------|-5-5-5---5--5-6-|-5-------------|
|-1-------------1---------|---------------|-6-6-6---6--6-8-|-6--6---6------|
|-------------------------|---------------|----------------|----7---7------|
|-------------------------|---------------|----------------|---------------|
|-------------------------|---------------|----------------|---------------|
|-------------------------|---------------|----------------|---------------|


  Gtr III
  E E E E E E E  E   Q  E E Q.   E    Q   E  E E  E  Q     E  E  E E  Q.   E
|-5-5-5-5---5-6--8-|-6-------------|--------------------|--------------------|
|-6-6-6-6---6-8-10-|-8--8---8------|-10--10-10---10-10--|-11-----------------|
|------------------|----9---9------|-10--10-10---10-10--|-10-10-10---10------|
|------------------|---------------|--------------------|----12-12---12------|
|------------------|---------------|--------------------|--------------------|
|------------------|---------------|--------------------|--------------------|


   E  E  Q   E  E  E  E    Q   E E  Q.   E
|-----------------------|------------------|
|-10-10-10--10-10-11-13-|-11---------------|
|-10-10-10--10-10-12-14-|-12--12---12------|
|-----------------------|-----14---14------|
|-----------------------|------------------|
|-----------------------|------------------|
|
| Gtr IV
|  W                       W
|-----------------------|------------------|
|-----------------------|------------------|
|-----------------------|------------------|
|-----------------------|------------------|
|-----------------------|------------------|
|-----------------------|------------------|


   E  E  E  E E  E E  E    E  E  E  E  E E  E E
|-----------------------|-----------------------|
|-----------------------|-----------------------|
|-----------------------|-----------------------|
|-----------------------|-----------------------|
|----------12------8-10-|----10-10-12-10-8------|
|----10-10------10------|------------------10-8-|
|
|  W                       W
|-----------------------|-----------------------|
|-----------------------|-----------------------|
|-10--------------------|-10--------------------|
|-12--------------------|-12--------------------|
|-12--------------------|-13--------------------|
|-----------------------|-----------------------|


   E E E E E E E  E    E  E  E  E  Q   Q
|-------------------|---------------------|
|-------------------|---------------------|
|-------------------|---------------------|
|--------7----------|---------------------|
|------8-------8-10-|----10-10-12---------|
|----8-------8------|-------------13--12--|
|
|  W                   W
|-------------------|---------------------|
|-------------------|---------------------|
|-10----------------|--9------------------|
|-10----------------|-10------------------|
|-12----------------|-10------------------|
|-------------------|---------------------|


   E  E E E E E E E    E E E E E E E E
|-------------------|------------------|
|-------------------|------------------|
|-------------------|------------------|
|---------7-----3-5-|----5-5-7-5-3-----|
|-------8-----5-----|--------------5-3-|
|----10-------------|------------------|
|
|  W                   W
|-------------------|------------------|
|-------------------|------------------|
|-10----------------|-10---------------|
|-12----------------|-12---------------|
|-12----------------|-13---------------|
|-------------------|------------------|


  Gtr II
   W                  W                 S  S  S S  S S  S S  S S  S S  S S E
|------------------|----------------|-------------------------------9-10-----|
|------------------|----------------|---3--2--3-5--6-5--6-8-10-9-10----------|
|------------------|----------------|----------------------------------------|
|------------------|----------------|----------------------------------------|
|------------------|----------------|----------------------------------------|
|------------------|----------------|----------------------------------------|
|
| Gtr III                             Gtr I
|  E E E E E E E E    E E E E Q  Q      E     E    E    E    E    E    E   E
|------------------|----------------|----------------------------------------|
|------------------|----------------|----------------------------------------|
|--------2---------|----------------|----------------------------------------|
|------3-------3-5-|----5-5-7-------|----------------------------11---12-----|
|----3-------3-----|----------8--7--|---5-----7----8---10---12---12----------|
|------------------|----------------|---9----10---12---13---16---------------|
|
| Gtr IV
|  W                  W                +Q          Q         H
|------------------|----------------|----------------------------------------|
|------------------|----------------|----------------------------------------|
|-10---------------|--9-------------|--(9)-----------------------------------|
|-10---------------|-10-------------|-(10)-----------------------------------|
|-12---------------|-10-------------|-(10)-----------------------------------|
|------------------|----------------|----------------------------------------|


  Gtr I
   E E   Q       Q   Q
|------------------------|
|------------------------|
|------------------------|
|------------------------|
|--1-------------3-------|
|------------------------|
|
| Gtr II
|  E S S S S S S E E E E
|------------6---------3-|
|--------6-------5---5---|
|-10---7-----------5-----|
|-12-8-------------------|
|------------------------|
|------------------------|
|
| Gtr III
|  Q     Q       Q   Q
|--------5-------3-------|
|------------------------|
|--7---------------------|
|------------------------|
|------------------------|
|------------------------|


  E E   E   E    E    E   E   E   E E   Q       Q   Q
|-------------------------------|------------------------|
|-------------------------------|------------------------|
|-------------------------------|------------------------|
|-------------------------------|------------------------|
|-0---------0----5----5---7---8-|------------------------|
|-------------------------------|-6-------------8--------|
|
| E S S S S S S  S  S S S S S E   E S S S S S S E E E E
|-----------5-------------------|-----------6-------3----|
|-5-----5--------6--6-6-6-6-----|-6-----6-------5-----5--|
|-5---5-------------9-9-9-9-----|-7---7-----------5------|
|---7---------------------------|---8--------------------|
|-------------------------------|------------------------|
|-------------------------------|------------------------|
|
| Q     E   E   +Q        Q       Q     Q       Q   Q
|-------3---1---(1)-------------|-------5-------3--------|
|-1-----------------------------|-3----------------------|
|-------------------------------|------------------------|
|-------------------------------|------------------------|
|-------------------------------|------------------------|
|-------------------------------|------------------------|


  E E E E  E    E   E   E   E E   Q       Q   Q
|-------------------------|-----------------------|
|-------------------------|-----------------------|
|-------------------------|-----------------------|
|---------------3---5---7-|-----------------------|
|----------5--------------|-----------------------|
|-5-----5-----------------|-6-------------8-------|
|
| E E E E  S  S S S S S E   E S S S S S S E E E E
|-8-6-5-3-----1-1-1-1-----|-1-----1---6---------3-|
|----------3--3-3-3-3-----|-3---3---------5---5---|
|-------------------------|---3-------------5-----|
|-------------------------|-----------------------|
|-------------------------|-----------------------|
|-------------------------|-----------------------|
|
| Q   E E +Q        Q       Q     Q       Q   Q
|-----3-1-(1)-------------|-------5-------3-------|
|-1-----------------------|-3---------------------|
|-------------------------|-----------------------|
|-------------------------|-----------------------|
|-------------------------|-----------------------|
|-------------------------|-----------------------|


  E E   E   E    E    E   E   E
|--------------------------------|
|--------------------------------|
|--------------------------------|
|--------------------------------|
|----------------5----5---7---8--|
|-5---------5--------------------|
|
| E S S S S S S  S  S S S S S E
|-----------5--------------------|
|-5-----5--------6--6-6-6-6------|
|-5---5-------------9-9-9-9------|
|---7----------------------------|
|--------------------------------|
|--------------------------------|
|
| Q     E   E   +Q        Q
|-------3---1---(1)--------------|
|-1------------------------------|
|--------------------------------|
|--------------------------------|
|--------------------------------|
|--------------------------------|


  E E   Q       Q   Q     E E Q   Q       Q       W
|-----------------------|-----------------------|--------------|
|-----------------------|-----------------------|--------------|
|-----------------------|-----------------------|--------------|
|-----------------------|-----------------------|--------------|
|-----------------------|-----------------------|--------------|
|-6-------------8-------|-5-------5-------------|--------------|
|
| E S S S S S S E E E E   E E E E S S S S S S E   W
|-----------6-------3---|-8-6-5-3---0-0-0-0-----|--------------|
|-6-----6-------5-----5-|---------2-2-2-2-2-----|--------------|
|-7---7-----------5-----|-----------------------|--------------|
|---8-------------------|-----------------------|--------------|
|-----------------------|-----------------------|--------------|
|-----------------------|-----------------------|--------------|
|
| Q     Q       Q   Q     W                       Q  Q  Q  E E
|-------5-------3-------|-----------------------|----5--3--3-1-|
|-3---------------------|-----------------------|-3------------|
|-----------------------|-----------------------|--------------|
|-----------------------|-----------------------|--------------|
|-----------------------|-----------------------|--------------|
|-----------------------|-----------------------|--------------|


  Gtr III
   E E E E  Q  E E    Q  Q   E E E E    Q  Q   Q  Q     Q   Q   Q  E E
|--3-1-3-5---------|-----5---3-1-3-1-|--3--8---------|-----------------|
|-----------3----3-|--3--------------|--------10-----|-----10---8--8-6-|
|------------------|-----------------|---------------|-----------------|
|------------------|-----------------|---------------|-12--------------|
|------------------|-----------------|---------------|-----------------|
|------------------|-----------------|---------------|-----------------|
|
| Gtr IV
|  H        H         H      H          H      H        H       H
|------------------|-----------------|---------------|-----------------|
|----------10------|---------8-------|--------10-----|----------8------|
|--9-------10------|-10------9-------|--9-----10-----|-10-------9------|
|-10-------12------|-12-----10-------|-10-----12-----|-12------10------|
|-12---------------|-----------------|-12------------|-----------------|
|------------------|-----------------|---------------|-----------------|
|
| Gtr V
|  H        H         H      H          H      H        H       H
|------------------|-----------------|---------------|-----------------|
|------------------|-----------------|---------------|-----------------|
|------------------|-----------------|---------------|-----------------|
|------------------|-----------------|---------------|-----------------|
|--0--------5------|-----------------|---------5-----|-----------------|
|------------------|--6------8-------|--5------------|--6-------8------|


  Gtr I
  W                    W                W              E E    Q       Q   Q
|-------------------|-----------------|-------------|--------------------------|
|-------------------|-----------------|-------------|--------------------------|
|-------------------|-----------------|-------------|--------------------------|
|-------------------|-----------------|-------------|--------------------------|
|-------------------|-----------------|-------------|--------------------------|
|-------------------|-----------------|-------------|--6--------------8--------|
|
| Gtr II
| W                    W                W              E S S  S S S S E E E E
|-------------------|-----------------|-------------|--1------1---6---------3--|
|-------------------|-----------------|-------------|--3---3----------5---5----|
|-------------------|-----------------|-------------|----3--------------5------|
|-------------------|-----------------|-------------|--------------------------|
|-------------------|-----------------|-------------|--------------------------|
|-------------------|-----------------|-------------|--------------------------|
|
| Gtr III
| E E E  E  Q  E  E    Q   Q  E E E E   Q  Q   H       Q      Q       Q   E E
|-------------------|-----------------|----8--------|--------------------------|
|-8-6-8-10----------|-10--10--8-6-8-6-|-8-----10----|--------10-------8---8-6--|
|-------------------|-----------------|-------------|--------------------------|
|----------12----12-|-----------------|-------------|-12-----------------------|
|-------------------|-----------------|-------------|--------------------------|
|-------------------|-----------------|-------------|--------------------------|


  E E   E    E    E   E   E    E
|--------------------------------|
|--------------------------------|
|--------------------------------|
|--------------------------------|
|-----------------5---5---7----8-|
|-5----------5-------------------|
|
| E S S S S  S S  S S S S S S  E
|------------5-------------------|
|-5-----5---------6-6-6-6-6------|
|-5---5-------------9-9-9-9------|
|---7----------------------------|
|--------------------------------|
|--------------------------------|
|
| E E   E    E    Q       E    E
|--------------------------------|
|-8-6---8---10-------------------|
|--------------------------------|
|----------------12-----------12-|
|--------------------------------|
|--------------------------------|


   E E    Q       Q   Q     E E E E  E   E   E   E
|-------------------------|-------------------------|
|-------------------------|-------------------------|
|-------------------------|-------------------------|
|-------------------------|--------------3---5---7--|
|-------------------------|----------5--------------|
|--6--------------8-------|-5-----5-----------------|
|
|  E S S  S S S S E E E E   E E E E  S S S S S S E
|-------------6-------3---|-8-6-5-3----1-1-1-1------|
|--6------6-------5-----5-|----------3-3-3-3-3------|
|--7---7------------5-----|-------------------------|
|----8--------------------|-------------------------|
|-------------------------|-------------------------|
|-------------------------|-------------------------|
|
|  Q      Q       E E E E   Q   Q    Q       Q
|-------------------------|-----8-------------------|
|--------10-------8-6-8-6-|-8-------10--------------|
|-------------------------|-------------------------|
|-12----------------------|-------------------------|
|-------------------------|-------------------------|
|-------------------------|-------------------------|


   E E    Q       Q   Q
|-------------------------|
|-------------------------|
|-------------------------|
|-------------------------|
|-------------------------|
|--6--------------8-------|
|
|  E S S  S S S S E E E E
|--1------1---6---------3-|
|--3---3----------5---5---|
|----3--------------5-----|
|-------------------------|
|-------------------------|
|-------------------------|
|
|  Q      Q       Q   E E
|-------------------------|
|--------10-------8---8-6-|
|-------------------------|
|-12----------------------|
|-------------------------|
|-------------------------|


  E E   E    E    E   E   E    E    E E    Q       Q   Q
|--------------------------------|--------------------------|
|--------------------------------|--------------------------|
|--------------------------------|--------------------------|
|--------------------------------|--------------------------|
|-----------------5---5---7----8-|--------------------------|
|-5----------5-------------------|--6--------------8--------|
|
| E S S S S  S S  S S S S S S  E    E S S  S S S S E E E E
|------------5-------------------|-------------6-------3----|
|-5-----5---------6-6-6-6-6------|--6------6-------5-----5--|
|-5---5-------------9-9-9-9------|--7---7------------5------|
|---7----------------------------|----8---------------------|
|--------------------------------|--------------------------|
|--------------------------------|--------------------------|
|
| E E   E    E    Q       E    E    Q      Q       E E E E
|--------------------------------|--------------------------|
|-8-6---8---10-------------------|-10-----10-------8-6-8-6--|
|--------------------------------|--------------------------|
|----------------12-----------12-|--------------------------|
|--------------------------------|--------------------------|
|--------------------------------|--------------------------|


  E E Q    Q       Q       E   E   E   E    E    E   E    E
|------------------------|------------------------------------|
|------------------------|------------------------------------|
|------------------------|---------------------------0--------|
|------------------------|-------------0----2----3---2----3---|
|------------------------|-0---2---4---4----5----7------------|
|-5--------5-------------|-4---5---7--------------------------|
|
| E E E E  S S S S S S E   S S S S S S S S  S  S S S S S  S S
|-8-6-5-3----0-0-0-0-----|------------------------------------|
|----------2-2-2-2-2-----|---------2---2-3--5--3-5-6-8------8-|
|------------------------|-2-1-2-4---4-----------------9-10---|
|------------------------|------------------------------------|
|------------------------|------------------------------------|
|------------------------|------------------------------------|
|
| Q   Q    H               Q       E   E   +E    E   E    E
|-----8------------------|------------------------------------|
|-8-------10-------------|-------------8---(8)---8---6----5---|
|------------------------|------------------------------------|
|------------------------|------------------------------------|
|------------------------|------------------------------------|
|------------------------|------------------------------------|


  E E   E E   E E   E E      E  E   E E    E  E   E E
|-------------------------|-----------------------------|
|-------------------------|-----------------------------|
|-------------------------|-----------------------------|
|-5-----------------------|-----------------------------|
|-5-----5-----5-----5-----|-----------------------------|
|-------------------------|--6------6------6------6-----|
|
| E S S E S S E S S E S S    E  S S E S S  E  S S E S S
|-------------------------|-----------------------------|
|---6-----6-----6-----6---|-----6-----6-------6-----6---|
|---7-----7-----7-----7---|-----7-----7-------7-----7---|
|-------------------------|-----------------------------|
|-------------------------|-----------------------------|
|-------------------------|-----------------------------|
|
| H           E E   E E     +E  E   E E   +E  E   E E
|-------------------5-3---|-(3)-5-----3---(3)-3---1-0---|
|-3-------------3---------|-----------------------------|
|-------------------------|-----------------------------|
|-------------------------|-----------------------------|
|-------------------------|-----------------------------|
|-------------------------|-----------------------------|


  E E   E E   E E   E E
|--------------------------|
|--------------------------|
|--------------------------|
|--------------------------|
|--------------------------|
|-8-----8-----8-----8------|
|
| E S S E S S E S S E S S
|--------------------------|
|---6-----6-----6-----6----|
|---5-----5-----5-----5----|
|--------------------------|
|--------------------------|
|--------------------------|
|
| H           E E   E E
|-------------------5-3----|
|-1-------------1----------|
|--------------------------|
|--------------------------|
|--------------------------|
|--------------------------|


   E  E   E E    E  E   E E      E E    E E    E E    E E
|-----------------------------|-----------------------------|
|-----------------------------|-----------------------------|
|-----------------------------|-----------------------------|
|-----------------------------|-----------------------------|
|-----------------------------|-----------------------------|
|--8------8------8------8-----|-10-----10-----10-----10-----|
|
|  E  S S E S S  E  S S E S S    E S S  E S S  E S S  E S S
|-----------------------------|-----------------------------|
|-----5-----5-------5-----5---|----6------6------6------6---|
|-----5-----5-------5-----5---|----7------7------7------7---|
|-----------------------------|-----------------------------|
|-----------------------------|-----------------------------|
|-----------------------------|-----------------------------|
|
| +E  E   E E   +E  E   E E      H             E E    E E
|-(3)-5-----3---(3)-3---1-0---|-----------------------5-3---|
|-----------------------------|--3---------------3----------|
|-----------------------------|-----------------------------|
|-----------------------------|-----------------------------|
|-----------------------------|-----------------------------|
|-----------------------------|-----------------------------|


   E  E   E E    E  E   E E
|------------------------------|
|------------------------------|
|------------------------------|
|------------------------------|
|------------------------------|
|--6------6------6------6------|
|
|  E  S S E S S  E  S S E S S
|------------------------------|
|-----6-----6-------6-----6----|
|-----7-----7-------7-----7----|
|------------------------------|
|------------------------------|
|------------------------------|
|
| +E  E   E E   +E  E   E E
|-(3)-5-----3---(3)-3---1-0----|
|------------------------------|
|------------------------------|
|------------------------------|
|------------------------------|
|------------------------------|


  E E   E E   E E   E E      E  E   E E    E  E   E E
|-------------------------|-----------------------------|
|-------------------------|-----------------------------|
|-------------------------|-----------------------------|
|-------------------------|-----------------------------|
|-------------------------|-----------------------------|
|-8-----8-----8-----8-----|--8------8------8------8-----|
|
| E S S E S S E S S E S S    E  S S E S S  E  S S E S S
|-------------------------|-----------------------------|
|---6-----6-----6-----6---|-----5-----5-------5-----5---|
|---5-----5-----5-----5---|-----5-----5-------5-----5---|
|-------------------------|-----------------------------|
|-------------------------|-----------------------------|
|-------------------------|-----------------------------|
|
| H           E E   E E     +E  E   E E   +E  E   E E
|-------------------5-3---|-(3)-5-----3---(3)-5-----3---|
|-1-------------1---------|-----------------------------|
|-------------------------|-----------------------------|
|-------------------------|-----------------------------|
|-------------------------|-----------------------------|
|-------------------------|-----------------------------|


   E     E    E    E    E    E    E   E    E E Q  H
|---------------------------------------|--------------*|
|---------------------------------------|--------------*|
|---------------------------------------|--------------*|
|---------------------------11---12-----|--------------*|
|--5-----7----8---10---12---12----------|--------------*|
|--9----10---12---13---16---------------|-10-----------*|
|
|  S  S  S S  S S  S S  S S  S S  S S E    E E Q  H
|------------------------------9-10-----|--------------*|
|--3--2--3-5--6-5--6-8-10-9-10----------|--------------*|
|---------------------------------------|--------------*|
|---------------------------------------|-12-----------*|
|---------------------------------------|--------------*|
|---------------------------------------|--------------*|
|
| +E     E    Q         H                  W
|-(3)----5------------------------------|--------------*|
|---------------------------------------|--------------*|
|---------------------------------------|--------------*|
|---------------------------------------|--------------*|
|---------------------------------------|--------------*|
|---------------------------------------|--------------*|


Duration Legend
---------------
W - whole; H - half; Q - quarter; E - 8th; S - 16th; T - 32nd; X - 64th; a - acciaccatura
+ - note tied to previous; . - note dotted; .. - note double dotted
Uncapitalized letters represent notes that are staccato (1/2 duration)
Irregular groupings are notated above the duration line
Duration letters will always appear directly above the note/fret number it represents the
duration for.  Duration letters with no fret number below them represent rests.  Multi-
bar rests are notated in the form Wxn, where n is the number of bars to rest for.  Low
melody durations appear below the staff

Tablature Legend
----------------
 h   - hammer-on
 p   - pull-off
 b   - bend
 pb  - pre-bend
 r   - bend release (if no number after the r, then release immediately)
 /\  - slide into or out of (from/to "nowhere")
 s   - legato slide
 S   - shift slide
  - natural harmonic
[n]  - artificial harmonic
n(n) - tapped harmonic
 ~   - vibrato
 tr  - trill
 T   - tap
 TP  - trem. picking
 PM  - palm muting
\n/  - tremolo bar dip; n = amount to dip
 \n  - tremolo bar down
 n/  - tremolo bar up
/n\  - tremolo bar inverted dip
 =   - hold bend; also acts as connecting device for hammers/pulls
 <>  - volume swell (louder/softer)
 x   - on rhythm slash represents muted slash
 o   - on rhythm slash represents single note slash

Misc Legend
-----------
 |  - bar
||  - double bar
||o - repeat start
o|| - repeat end
*|  - double bar (ending)
 :  - bar (freetime)
 $  - Segno
 &  - Coda
Tempo markers -  = BPM(8/16=s8/s16), where s8 = swing 8ths, s16 = swing 16ths

            
            
Suggest correction
Creating personal tab
Creating personal tab
You can edit any tab online and save it as your Personal.

You can edit, replace or remove any tab part or add personal notes – all changes will be seen only by you.

Personal tabs can be accessed anytime from any device, even offline.
Learn more »
Give kudos to tab author, rate the tab!
1 2 3 4 5
comments
print report bad tab
guest
You may want to rate the tab now too:
select rating
Wanna post a correction for this tab? Suggest correction