Oops, an error
Loading. Please wait.

Crown Of Love tab

version 2
version 2

Whole song

Interactive

4,242 views 9 this week
1 commentread comment
1 2 3 4 5
1 last vote to show rating
add to favorites
×
Save as Personal and add changes to this tab that will be seen only by you. Learn more ›
×
You can save this tab as Personal to edit and correct it or add notes. All changes will be seen only by you. Learn more »
launch autoscroll
font size
0
reset
how to read this tab
guitar tuner
backing track
0:00
0:00
edit
Autoscroll
slow
fast
+/-
esc
set tempo
stop
ARCADE FIRE
CROWN OF LOVE

Another great song by the Arcade Fire. Thanks to "Perry The Almighty Rat" for the 
post of this song.

 -Steve (steveseligman@hotmail.com)


 (VERSE)
              Eb                        Abmaj13
e|----------|-------------------------|-------------------------|
B|----------|-------------------------|-------------------------|
G|----------|-----3-----3-----3-----3-|---0-----0-----0-----0---|
D|--6-6---5-|---5-----5-----5-----5---|-----3-----3-----3-----3-|
A|----------|-6-----6-----6-----6-----|-------------------------|
E|----------|-------------------------|-4-----4-----4-----4-----|


    Bb6                       G7/B
e|--------------------------|-------------------------|
B|--------------------------|-------------------------|
G|------3-----3-----3-----3-|---0-----0-----0-----0---|
D|----5-----5-----5-----5---|-----3-----3-----3-----3-|
A|--------------------------|-2-----2-----2-----2-----|
E|--6-----6----6------6-----|-------------------------|


    Eb                        Abmaj13
e|--------------------------|-------------------------|
B|--------------------------|-------------------------|
G|------3-----3-----3-----3-|---0-----0-----0-----0---|
D|----5-----5-----5-----5---|-----3-----3-----3-----3-|
A|--6-----6-----6-----6-----|-------------------------|
E|--------------------------|-4-----4-----4-----4-----|


    Bb6                       G7/B           If you still
e|--------------------------|----------------------------|
B|--------------------------|-----------------3-3---4----|
G|------3-----3-----3-----3-|---0-----0-----0-----0------|
D|----5-----5-----5-----5---|-----3-----3-----3-----3----|
A|--------------------------|-2-----2-----2-----2--------|
E|--6-----6-----6-----6-----|----------------------------|

 (CHORUS)
    Cm                         Ab(b5) Ab
    Want  me     Please   For - give  me     The  Crown  of
e|---------------------------------------------------------------------|
B|--3------------3--------4-----3--------------------------------------|
G|--5-----5------5--------------5-----5------5----5--------------------|
D|--5-----5------5--------------6-----6-----------6------8-------------|
A|--3-----3------3--------------------6-----------6--------------------|
E|-----------------------------(4)----4-----------4--------------------|

   Eb                        Bb
   Love     Has  Fall -- en  From   Me         If  You  Still
e|---------------------------------------------------------------------|
B|---------------------------------------------3---3----4--------------|
G|-------------------------------------------------3-------------------|
D|--8-------5----5-------6---5------3--------------3-------------------|
A|--6------------6------------------1--------------1-------------------|
E|--6------------6-----------6-----------------------------------------|


    Want  Me     Please   For - give  Me     Be - cause  The
e|---------------------------------------------------------------------|
B|--3------------3--------4-----3--------------------------------------|
G|--5-----5------5--------------5-----5------5----5--------------------|
D|--5-----5------5--------------6-----6-----------6------8-------------|
A|--3-----3------3--------------------6-----------6--------------------|
E|-----------------------------(4)----4-----------4--------------------|


    Spark   Is   Not     With - in  Me
e|---------------------------------------------------------------------|
B|---------------------------------------------------------------------|
G|----------------------------------------------3-3-3-3-3-3-3----------|
E|--8-------5----5-------6------5---3-----------3-3-3-3-3-3-3----------|
A|--6------------6------------------1-----------1-1-1-1-1-1-1----------|
E|--6------------6--------------6--------------------------------------|


 (CHORUS LEADING INTO THE OUTRO)
e|---------------------------------------------------------------------|
B|--3------------3--------4-----3--------------------------------------|
G|--5-----5------5--------------5-----5------5----5--------------------|
D|--5-----5------5--------------6-----6-----------6------8-------------|
A|--3-----3------3--------------------6-----------6--------------------|
E|-----------------------------(4)----4-----------4--------------------|


                                    B(add6)
e|---------------------------------------------------------------------|
B|---------------------------------------------------------------------|
G|---------------------------------------------------------------------|
E|--8-------5----5--------6-----5---6----------------------------------|
A|--6------------6------------------6----------------------------------|
E|--6------------6--------------6---7----------------------------------|


(OUTRO)
    Eb   B(add6)
e|---------------------------------------------------------------------|
B|--8----9-------------------------------------------------------------|
G|--8----8-------------------------------------------------------------|
D|--8----9-------------------------------------------------------------|
A|--6----x-------------------------------------------------------------|
E|-------7-------------------------------------------------------------|

            
            
Suggest correction
Creating personal tab
Creating personal tab
You can edit any tab online and save it as your Personal.

You can edit, replace or remove any tab part or add personal notes – all changes will be seen only by you.

Personal tabs can be accessed anytime from any device, even offline.
Learn more »
Give kudos to tab author, rate the tab!
1 2 3 4 5
comments
print report bad tab
1 comment total.
+1 reply
nilswestermann 10 Jul 01, 2016 10:19 AM

Hey Guys! Great work... I would try changing your 2rd,3rd and 4th Chords of the verse to these shapes: 
E-----------------------
B-----------------------
G---0-------3----0------
D----3-----5------3-----
A---------------2-------
E--4------6-------------

To me that sounds better!

guest
Wanna post a correction for this tab? Suggest correction