Oops, an error
Loading. Please wait.

Signs Of Life bass

1,078 views 48 this week
no commentswrite comment
1 2 3 4 5
3 more votes to show rating
add to favorites
×
Save as Personal and add changes to this tab that will be seen only by you. Learn more ›
×
You can save this tab as Personal to edit and correct it or add notes. All changes will be seen only by you. Learn more »
launch autoscroll
font size
0
reset
guitar tuner
edit
Autoscroll
slow
fast
+/-
esc
set tempo
stop
About this tab version
Played with a pick. Mostly palm-muted. Was this info helpful? Yes No
[Intro]

   1 ^ + ^ 2 ^ + ^ 3 ^ + ^ 4 ^ + ^   1 ^ + ^ 2 ^ + ^ 3 ^ + ^ 4 ^ + ^
G|---------------------------------|---------------------------------|
D|---------------------------------|---------------------------------|
A|-----5---7---5-7~----------------|-----5---7---5-7~----------------|
E|---------------------------------|---------------------------------| x6


[Verse]

   1 ^ + ^ 2 ^ + ^ 3 ^ + ^ 4 ^ + ^   1 ^ + ^ 2 ^ + ^ 3 ^ + ^ 4 ^ + ^
G|---------------------------------|-----------------------------------|
D|---------------------------------|-----------------------------------|
A|-----5---7---5-7~----------------|-----5---7---5-7~--------9-----10\-|
E|---------------------------------|-----------------------------------|

   1 ^ + ^ 2 ^ + ^ 3 ^ + ^ 4 ^ + ^   1 ^ + ^ 2 ^ + ^ 3 ^ + ^ 4 ^ + ^
G|---------------------------------|-----------------------------------|
D|---------------------------------|-----------------------------------|
A|-----5---7---5-7~----------------|-----5---7---5-7~--------7-----10\-|
E|---------------------------------|-----------------------------------|

   1 ^ + ^ 2 ^ + ^ 3 ^ + ^ 4 ^ + ^   1 ^ + ^ 2 ^ + ^ 3 ^ + ^ 4 ^ + ^
G|---------------------------------|-----------------------------------|
D|---------------------------------|-----------------------------------|
A|-----5---7---5-7~----------------|-----5---7---5-7~-------------/10--|
E|---------------------------------|-----------------------------------|

   1 ^ + ^ 2 ^ + ^ 3 ^ + ^ 4 ^ + ^   1 ^ + ^ 2 ^ + ^ 3 ^ + ^ 4 ^ + ^
G|---------------------------------|-----------------------------------|
D|---------------------------------|-----------------------------------|
A|-----5---7---5-7~----------------|-----5---7---5-7~--------7~--------|
E|---------------------------------|-----------------------------------|


[Pre-Chorus]

   1 ^ + ^ 2 ^ + ^ 3 ^ + ^ 4 ^ + ^   1 ^ + ^ 2 ^ + ^ 3 ^ + ^ 4 ^ + ^
G|---------------------------------|-----------------------------------|
D|---------------------------------|-----------------------------------|
A|-----5---7---5-7~----------------|-----5---7---5-7~--------7/----10--|
E|---------------------------------|-----------------------------------|

   1 ^ + ^ 2 ^ + ^ 3 ^ + ^ 4 ^ + ^   1 ^ + ^ 2 ^ + ^ 3 ^ + ^ 4 ^ + ^
G|---------------------------------|-----------------------------------|
D|---------------------------------|-----------------------------------|
A|-----5---7---5-7~----------------|-----5---7---5-7~--------7---------|
E|---------------------------------|-----------------------------x-3---|

   1 ^ + ^ 2 ^ + ^ 3 ^ + ^ 4 ^ + ^   1 ^ + ^ 2 ^ + ^ 3 ^ + ^ 4 ^ + ^
G|---------------------------------|-----------------------------------|
D|---------------------------------|-----------------------------------|
A|-----5---7---5-7~----------------|-----5---7---5-7~--------7/----10--|
E|---------------------------------|-----------------------------------|

   1 ^ + ^ 2 ^ + ^ 3 ^ + ^ 4 ^ + ^   1 ^ + ^ 2 ^ + ^ 3 ^ + ^ 4 ^ + ^
G|---------------------------------|-----------------------------------|
D|---------------------------------|-----------------------------------|
A|-----5---7---5-7~----------------|-----5---7---5-7~--------7-----7---|
E|---------------------------------|-----------------------------7-----|

   1 ^ + ^ 2 ^ + ^ 3 ^ + ^ 4 ^ + ^   1 ^ + ^ 2 ^ + ^ 3 ^ + ^ 4 ^ + ^
G|---------------------------------|-----------------------------------|
D|---------------------------------|-----------------------------------|
A|-----5---7---5-7~----------------|-----5---7---5-7~--------7---7-10--|
E|---------------------------------|-----------------------------------|

   1 ^ + ^ 2 ^ + ^ 3 ^ + ^ 4 ^ + ^   1 ^ + ^ 2 ^ + ^ 3 ^ + ^ 4 ^ + ^
G|---------------------------------|-----------------------------------|
D|---------------------------------|-----------------------------------|
A|-----5---7---5-7~----------------|-----5---7---5-7~----7-------------|
E|---------------------------------|-------------------------3---3-----|


[Chorus]

   1 ^ + ^ 2 ^ + ^ 3 ^ + ^ 4 ^ + ^   1 ^ + ^ 2 ^ + ^ 3 ^ + ^ 4  ^ + ^
G|---------------------------------|----------------------------------|
D|---------------------------------|----------------------------------|
A|-7-5-----7-5-------------5-------|-------------5-7---------19\------|
E|---------------------------------|----------------------------------|

   1 ^ + ^ 2 ^ + ^ 3 ^ + ^ 4 ^ + ^   1 ^ + ^ 2 ^ + ^ 3 ^ + ^ 4  ^ + ^
G|---------------------------------|----------------------------------|
D|---------------------------------|----------------------------------|
A|-7-5-----7-5-----------------5-5-|-5--------------------------------|
E|---------------------------------|-------------0-0-0----------------|

   1 ^ + ^ 2 ^ + ^ 3 ^ + ^ 4 ^ + ^   1 ^ + ^ 2 ^ + ^ 3 ^ + ^ 4  ^ + ^
G|---------------------------------|----------------------------------|
D|---------------------------------|----------------------------------|
A|-7-5-----7-5-------------5-------|-------------5-7------------------|
E|---------------------------------|----------------------------------|

   1 ^ + ^ 2 ^ + ^ 3 ^ + ^ 4 ^ + ^   1 ^ + ^ 2 ^ + ^ 3 ^ + ^ 4  ^ + ^
G|---------------------------------|----------------------------------|
D|---------------------------------|----------------------------------|
A|-7-5-----7-5-----------------5-5-|-5--------------------------------|
E|---------------------------------|-------------0-0-0----------------|


[Post-Chorus]

   1 ^ + ^ 2 ^ + ^ 3 ^ + ^ 4 ^ + ^   1 ^ + ^ 2 ^ + ^ 3 ^ + ^ 4 ^ + ^
G|---------------------------------|-----------------------------------|
D|---------------------------------|-5---------------------------------|
A|-----5---7---5-7~----------------|-----5---7---5-7~--------9-----10\-|
E|---------------------------------|-----------------------------------|

   1 ^ + ^ 2 ^ + ^ 3 ^ + ^ 4 ^ + ^   1 ^ + ^ 2 ^ + ^ 3 ^ + ^ 4 ^ + ^
G|---------------------------------|-----------------------------------|
D|---------------------------------|-----------------------------------|
A|-----5---7---5-7~----------------|-----5---7---5-7~--------7-----7---|
E|---------------------------------|-----------------------------------|

   1 ^ + ^ 2 ^ + ^ 3 ^ + ^ 4 ^ + ^   1 ^ + ^ 2 ^ + ^ 3 ^ + ^ 4 ^ + ^
G|---------------------------------|-----------------------------------|
D|---------------------------------|-5---------------------------------|
A|-----5---7---5-7~----------------|-----5---7---5-7~--------9---x-10\-|
E|---------------------------------|-----------------------------------|

   1 ^ + ^ 2 ^ + ^ 3 ^ + ^ 4 ^ + ^   1 ^ + ^ 2 ^ + ^ 3 ^ + ^ 4 ^ + ^
G|---------------------------------|-----------------------------------|
D|---------------------------------|-----------------------------------|
A|-----5---7---5-7~----------------|-----5---7---5-7~------------------|
E|---------------------------------|-----------------------------------|


[Verse]

   1 ^ + ^ 2 ^ + ^ 3 ^ + ^ 4 ^ + ^   1 ^ + ^ 2 ^ + ^ 3 ^ + ^ 4 ^ + ^
G|---------------------------------|-----------------------------------|
D|---------------------------------|-----------------------------------|
A|-----5---7---5-7~----------------|-----5---7---5-7~--------9---x-10\-|
E|---------------------------------|-----------------------------------| x3

   1 ^ + ^ 2 ^ + ^ 3 ^ + ^ 4 ^ + ^   1 ^ + ^ 2 ^ + ^ 3 ^ + ^ 4 ^ +  ^
G|---------------------------------|-----------------------------------|
D|---------------------------------|-----------------------------------|
A|-----5---7---5-7~----------------|-----5---7---5-7~------------10-10-|
E|---------------------------------|-----------------------------------|

   1 ^ + ^ 2 ^ + ^ 3 ^ + ^ 4 ^ + ^   1 ^ + ^ 2 ^ + ^ 3 ^ + ^ 4 ^ + ^
G|---------------------------------|-----------------------------------|
D|---------------------------------|-5---------------------------------|
A|-----5---7---5-7~----------------|-----5---7---5-7~--------9---x-10\-|
E|---------------------------------|-----------------------------------|

   1 ^ + ^ 2 ^ + ^ 3 ^ + ^ 4 ^ + ^   1 ^ + ^ 2 ^ + ^ 3 ^ + ^ 4  ^ + ^
G|---------------------------------|-----------------------------------|
D|---------------------------------|-----------------------------------|
A|-----5---7---5-7~----------------|-----5---7---5-7~--------10~-------|
E|---------------------------------|-----------------------------------|

   1 ^ + ^ 2 ^ + ^ 3 ^ + ^ 4 ^ + ^   1 ^ + ^ 2 ^ + ^ 3 ^ + ^ 4 ^ + ^
G|---------------------------------|-----------------------------------|
D|---------------------------------|-5---------------------------------|
A|-----5---7---5-7~----------------|-----5---7---5-7~--------9---x-10\-|
E|---------------------------------|-----------------------------------|

   1 ^ + ^ 2 ^ + ^ 3 ^ + ^ 4 ^ + ^   1 ^ + ^ 2 ^ + ^ 3 ^ + ^ 4 ^ + ^
G|---------------------------------|-----------------------------------|
D|---------------------------------|-5---------------------------------|
A|-----5---7---5-7~----------------|-----5---7---5-7~--------7---------|
E|---------------------------------|-----------------------------------|


[Chorus]

   1 ^ + ^ 2 ^ + ^ 3 ^ + ^ 4 ^ + ^   1 ^ + ^ 2 ^ + ^ 3 ^ + ^ 4  ^ + ^
G|---------------------------------|----------------------------------|
D|---------------------------------|----------------------------------|
A|-7-5-----7-5-------------5-------|-------------5-7------------------|
E|---------------------------------|----------------------------------|

   1 ^ + ^ 2 ^ + ^ 3 ^ + ^ 4 ^ + ^   1 ^ + ^ 2 ^ + ^ 3 ^ + ^ 4  ^ + ^
G|---------------------------------|----------------------------------|
D|---------------------------------|----------------------------------|
A|-7-5-----7-5-----------------5-5-|-5--------------------------------|
E|---------------------------------|-------------0-0-0----------------|

   1 ^ + ^ 2 ^ + ^ 3 ^ + ^ 4 ^ + ^   1 ^ + ^ 2 ^ + ^ 3 ^ + ^ 4  ^ + ^
G|---------------------------------|----------------------------------|
D|---------------------------------|----------------------------------|
A|-7-5-----7-5-------------5-------|-------------5-7------------------|
E|---------------------------------|----------------------------------|

   1 ^ + ^ 2 ^ + ^ 3 ^ + ^ 4 ^ + ^   1 ^ + ^ 2 ^ + ^ 3 ^ + ^ 4  ^ + ^
G|---------------------------------|----------------------------------|
D|---------------------------------|----------------------------------|
A|-7-5-----7-5-----------------5-5-|-5--------------------------------|
E|---------------------------------|-------------0-0-0----------------|


Rest


[Bridge] (Bass back in at 3:10)

   1 ^ + ^ 2 ^ + ^ 3 ^ + ^ 4 ^ + ^   1 ^ + ^ 2 ^ + ^ 3 ^ + ^ 4 ^ + ^
G|---------------------------------|---------------------------------|
D|---------------------------------|---------------------------------|
A|-----5---7---5-7~----------------|-----5---7---5-7~----------------|
E|---------------------------------|---------------------------------| x2


[Pre-Chorus]

   1 ^ + ^ 2 ^ + ^ 3 ^ + ^ 4 ^ + ^   1 ^ + ^ 2 ^ + ^ 3 ^ + ^ 4 ^ + ^
G|---------------------------------|---------------------------------|
D|---------------------------------|---------------------------------|
A|-----5---7---5-7~----------------|-----5---7---5-7~----------------|
E|---------------------------------|-------------------------2---x-3-|

   1 ^ + ^ 2 ^ + ^ 3 ^ + ^ 4 ^ + ^   1 ^ + ^ 2 ^ + ^ 3 ^ + ^ 4 ^ + ^
G|---------------------------------|---------------------------------|
D|---------------------------------|---------------------------------|
A|-----5---7---5-7~----------------|-----5---7---5-7~--------7p5-----|
E|---------------------------------|---------------------------------|

   1 ^ + ^ 2 ^ + ^ 3 ^ + ^ 4 ^ + ^   1 ^ + ^ 2 ^ + ^ 3 ^ + ^ 4 ^ + ^
G|---------------------------------|---------------------------------|
D|---------------------------------|---------------------------------|
A|-----5---7---5-7~----------------|-----5---7---5-7~------------x-5-|
E|---------------------------------|--------------------------3------|

   1 ^ + ^ 2 ^ + ^ 3 ^ + ^ 4 ^ + ^   1 ^ + ^ 2 ^ + ^ 3 ^ + ^ 4 ^ + ^
G|---------------------------------|---------------------------------|
D|---------------------------------|---------------------------------|
A|-----5---7---5-7~----------------|-----5---7---5-7~--------7-------|
E|---------------------------------|-----------------------------3---|

   1 ^ + ^ 2 ^ + ^ 3 ^ + ^ 4 ^ + ^   1 ^ + ^ 2 ^ + ^ 3 ^ + ^ 4 ^ + ^
G|---------------------------------|-----------------------------------|
D|---------------------------------|-----------------------------------|
A|-----5---7---5-7~----------------|-----5---7---5-7~--------9---x-10\-|
E|---------------------------------|-----------------------------------|

   1 ^ + ^ 2 ^ + ^ 3 ^ + ^ 4 ^ + ^   1 ^ + ^ 2 ^ + ^ 3 ^ + ^ 4 ^ + ^
G|---------------------------------|---------------------------------|
D|---------------------------------|---------------------------------|
A|-----5---7---5-7~----------------|-----5---7---5-7~--------------5-|
E|---------------------------------|-------------------------3-------|

   1 ^ + ^ 2 ^ + ^ 3 ^ + ^ 4 ^ + ^   1 ^ + ^ 2 ^ + ^ 3 ^ + ^ 4 ^ + ^
G|---------------------------------|-----------------------------------|
D|---------------------------------|-----------------------------------|
A|-----5---7---5-7~----------------|-----5---7---5-7~----7---9---9-10\-|
E|---------------------------------|-----------------------------------|

   1 ^ + ^ 2 ^ + ^ 3 ^ + ^ 4 ^ + ^   1 ^ + ^ 2 ^ + ^ 3 ^ + ^ 4 ^ + ^
G|---------------------------------|---------------------------------|
D|---------------------------------|---------------------------------|
A|-----5---7---5-7~----------------|-----5---7---5-7~--------------5-|
E|---------------------------------|-------------------------3-------|


[Outro]

   1 ^ + ^ 2 ^ + ^ 3 ^ + ^ 4 ^ + ^   1 ^ + ^ 2 ^ + ^ 3 ^ + ^ 4 ^ + ^
G|---------------------------------|-----------------------------------|
D|---------------------------------|-----------------------------------|
A|-----5---7---5-7~----------------|-----5---7---5-7~----7---9---9-10\-|
E|---------------------------------|-----------------------------------|

   1 ^ + ^ 2 ^ + ^ 3 ^ + ^ 4 ^ + ^   1 ^ + ^ 2 ^ + ^ 3 ^ + ^ 4 ^ + ^
G|---------------------------------|---------------------------------|
D|---------------------5-----------|---------------------------------|
A|-----5---7---5-7---------7-----7-|-----5---7---5-7~--------------5-|
E|---------------------------------|-------------------------3-------|

   1 ^ + ^ 2 ^ + ^ 3 ^ + ^ 4 ^ + ^   1 ^ + ^ 2 ^ + ^ 3 ^ + ^ 4 ^ + ^
G|---------------------------------|-----------------------------------|
D|---------------------5-----------|-----------------------------------|
A|-----5---7---5-7---------7-----7-|-----5---7---5-7~--------9---x-10\-|
E|---------------------------------|-----------------------------------|

   1 ^ + ^ 2 ^ + ^ 3 ^ + ^ 4 ^ + ^   1 ^ + ^ 2 ^ + ^ 3 ^ + ^ 4 ^ + ^
G|---------------------------------|---------------------------------|
D|---------------------------------|---------------------------------|
A|-----5---7---5-7~----------------|-----5---7---5-7~--------------x-|
E|---------------------------------|-------------------------3-------|

   1 ^ + ^ 2 ^ + ^ 3 ^ + ^ 4 ^ + ^   1 ^ + ^ 2 ^ + ^ 3 ^ + ^ 4  ^ + ^
G|---------------------------------|----------------------------------|
D|---------------------------------|----------------------------------|
A|-----5---7---5-7~----------------|-----5---7---5-7~-------/10---9-7-|
E|---------------------------------|----------------------------------|

   1 ^ + ^ 2 ^ + ^ 3 ^ + ^ 4 ^ + ^   1 ^ + ^ 2 ^ + ^ 3 ^ + ^ 4 ^ + ^
G|---------------------------------|---------------------------------|
D|---------------------------------|---------------------------------|
A|-----5---7---5-7~----------------|---------5-----7~--------7---5-7-|
E|---------------------------------|-----7-------7-------------------|

************************************

| x   Dead note
| p   Pull-off
| /   Slide up
| \   Slide down
| ~   Let ring

************************************

            
            
Suggest correction
Creating personal tab
Creating personal tab
You can edit any tab online and save it as your Personal.

You can edit, replace or remove any tab part or add personal notes – all changes will be seen only by you.

Personal tabs can be accessed anytime from any device, even offline.
Learn more »
Give kudos to tab author, rate the tab!
1 2 3 4 5
comments
print report bad tab
guest
You may want to rate the tab now too:
select rating
Wanna post a correction for this tab? Suggest correction