Oops, an error
Loading. Please wait.

Suburban War intro tab

version 3
version 3

Whole song

Interactive

25,885 views 18 this week
4 commentsread comments
1 2 3 4 5
x 17
add to favorites
×
Save as Personal and add changes to this tab that will be seen only by you. Learn more ›
×
You can save this tab as Personal to edit and correct it or add notes. All changes will be seen only by you. Learn more »
launch autoscroll
font size
0
reset
how to read this tab
guitar tuner
edit
Autoscroll
slow
fast
+/-
esc
set tempo
stop
Tuning: Standard
Capo: 3rd Fret

[Intro]
e|----------------------------------------------------------------------|
B|----------------------------------------------------------------------|
G|----------------------------------------------------------------------|
D|----------0---------0----------0-------------------------------7-4-0--|
A|-------9----9----9-----9-----7----7------10--12-----10--12---4--------|
E|-----7---------7---------9-----------10----------10-------------------|

            
            
Suggest correction
Creating personal tab
Creating personal tab
You can edit any tab online and save it as your Personal.

You can edit, replace or remove any tab part or add personal notes – all changes will be seen only by you.

Personal tabs can be accessed anytime from any device, even offline.
Learn more »
comments
print report bad tab
4 comments total. Showing first comments.
0 reply
zeel2314 10 Oct 14, 2010 05:33 PM

gret job, i just saw Arcade Fire in concert and saw how Win used a 12 string on capo but i couldnt figure it out, I know it might not be perfect but thanks!

0 reply
Qwar9 10 Mar 08, 2011 08:10 PM

You've done a great job of this tab from the video on Youtube, however, you've missed a part I think. Here is how it sounds.

E|-----------------------------------------------------------------------|
B|-----------------------------------------------------------------------|
G|-----------------------------------------------------------------------|
D|------0---------0----------0------------------------------------7-4-0--|
A|---9----9----9-----9-----7----7------10--12-----10--12-----0--4--------|
E|-7---------7---------9-----------10----------10---------10-------------|

0 reply
Qwar9 10 Mar 08, 2011 08:11 PM

Excuse me,

E|-----------------------------------------------------------------------|

B|-----------------------------------------------------------------------|
G|-----------------------------------------------------------------------|
D|------0---------0----------0------------------------------------7-4-0--|
A|---9----9----9-----9-----7----7------10--12-----10--12-----0--4--------|
E|-7---------7---------9-----------10----------10---------10-------------|

guest
You may want to rate the tab now too:
select rating
Wanna post a correction for this tab? Suggest correction