Oops, an error
Loading. Please wait.
We have Chord Pro version of The Suburbs.
It's the closest thing you can get to the original song and it has interactive parts. Check out the tab »
×
74,012 views 81 this week
3 commentsread comments
1 2 3 4 5
x 14
add to favorites
×
Save as Personal and add changes to this tab that will be seen only by you. Learn more ›
×
You can save this tab as Personal to edit and correct it or add notes. All changes will be seen only by you. Learn more »
launch autoscroll
font size
0
reset
how to read this tab
guitar tuner
edit
Autoscroll
slow
fast
+/-
esc
set tempo
stop
Artist: Arcade Fire
Song: The Suburbs
Album: The Suburbs

I am filling in the rest. I have not seen this closely enough at the show to say 
for sure, but you need either 2 guitars or a guitar and piano.
Since there are already lyrical accompaniment versions, I am providing the basic 
order/song structure.  


Guitar 1 - Capo 2.
Guitar 2 - No capo.


[Intro]

C Am E G


[Verse 1]


C                Am  E              G
 In the suburbs  I,     I learned to drive
         C                     Am   E                   G
 And you told me we’d never survive, grab your mother’s keys we’re leaving

C Am E G

C                     Am   E          G
 You always seemed so sure,  That one day we’d be fighting
C             Am   E              G
 In a suburban war,  your part of town against mine
           C                        Am                E       G
 I saw you standing on the opposite shore, but by the time the first bombs fell
 C               Am    E                  G
 We were already bored,  We were already, already bored


[Chorus 1]
(play it like this if you wish to remain at capo 2)

C            Am               E           D
 Sometimes I can’t believe it, I’m moving past the feeling
C            Am               E           D                C     Am E G
 Sometimes I can’t believe it, I’m moving past the feeling again


[Chorus 1 Alternate]
(guitar 2 / piano - no capo) (sounds correct)

A            Bm               F#           E
 Sometimes I can’t believe it, I’m moving past the feeling
A            Bm               F#           E                A     Bm F# E
 Sometimes I can’t believe it, I’m moving past the feeling again


[Accompany 1]

(guitar 2 with variation)
e|---------------------------------------------------------------------------|
B|-5-----3-----3-----2-------------------------------------------------------|
G|---------------------------------------------------------------------------|
D|---------------------------------------------------------------------------|
A|---------------------------------------------------------------------------|
E|---------------------------------------------------------------------------|

[Verse 2]

[Chorus 2]


[Solo 1] (x2)
(2:27) 

(guitar 1 - capo 2)
e|----------12------------------10--9-----9-----9------9----------------------|
B|------10------10------10-------------9-----9--------------------------------|
G|--11--------------11------11---------------------11-----11------------------|
D|------------------------------------------------------------9---------------|
A|---------------------------------------------------------------11-----------|
E|----------------------------------------------------------------------------|

(or...play it like this, a bit harder but the slides sound more accurate.)
e|--------12---------------10--9-----9-----9-----9----------------------------|
B|--7--10-----10--7--10--7--------9-----9-----7-----7-------------------------|
G|-----------------------------------------------------9----------------------|
D|--------------------------------------------------------11------------------|
A|----------------------------------------------------------------------------|
E|----------------------------------------------------------------------------|

[Verse 3]

[Chorus 3]

*[Accompany 1] 
(3:56) (repeat until end)


*[Outro]
(guitar 1)

E           D                C     Am
 I'm moving past the feeling again
E           D                C     Am
 I'm moving past the feeling again

C Am E G (x2)

       G                  C         Am E
 In my dreams we're still screaming
G                      C Am E 
 We're still screaming
G                      C Am E 
 We're still screaming

C Am E G (x2)
C


*[Solo 1] (x4)
(4:37) 
(on the 4th, do not play the last 2 notes.)

            
            
Suggest correction
Creating personal tab
Creating personal tab
You can edit any tab online and save it as your Personal.

You can edit, replace or remove any tab part or add personal notes – all changes will be seen only by you.

Personal tabs can be accessed anytime from any device, even offline.
Learn more »
comments
print report bad tab
3 comments total.
0 reply
themayneman 10 Nov 29, 2010 07:02 PM

great tab..only version i could find with the solo included..5* from me

0 reply
DrCONAJ 31 Feb 16, 2011 08:40 AM

Great tab, and solo is perfect, but the A for the piano doesn't sound quite right, found D worked better here, but otherwise, 5* :D

+1 reply
cmpunk14 61 Apr 24, 2012 02:53 PM

Great tab men :) 5 stars dude!!
My version of this song is:
Guitar (No Capo) =

E|-------------------------------------|
B|-5~~--3~~--3~~--2~~------0----|
G|-----------------------------2----2-|
D|-------------------------------------|
A|-------------------------------------|
E|-------------------------------------|

Guitar Solo (My Version xD) is not very different: Guitar (No Capo)

E|-----------12-------------------|
B|------10------10------10------|
G|-/11---------------11-----11--|
D|---------------------------------|
A|---------------------------------|
E|----------------------------------|

E|-10-9------------------------------|
B|-------------14------14-------14-|
G|--------/13------13------11------|
D|------------------------------------|
A|------------------------------------|
E|------------------------------------|

E|---------------------|
B|---------------------|
G|-11-----------------|
D|-------14----11~--|
A|---------------------|
E|---------------------|

And The Chords For The Chorus Verse Etc are= Guitar (Capo 2 Fret)

C - Am - E - G

and the chords without capo are:
C Am E G

e|-2------2-------2--------5----|
B|-3------3-------2--------5----|
G|-2------4-------3--------6----|
D|-4------4-------4--------7----|
A|-5------2-------4--------7----|
E|-2------2-------2--------5----|

guest
You may want to rate the tab now too:
select rating
Wanna post a correction for this tab? Suggest correction