Oops, an error
Loading. Please wait.

Angelclaw tab

version 3
version 3

Whole song

Interactive

1,848 views 1 this week
no commentswrite comment
1 2 3 4 5
2 more votes to show rating
add to favorites
×
Save as Personal and add changes to this tab that will be seen only by you. Learn more ›
×
You can save this tab as Personal to edit and correct it or add notes. All changes will be seen only by you. Learn more »
launch autoscroll
font size
0
reset
how to read this tab
guitar tuner
edit
Autoscroll
slow
fast
+/-
esc
set tempo
stop
#----------------------------------PLEASE NOTE---------------------------------#
#This file is the author's own work and represents their interpretation of the #
#song. You may only use this file for private study, scholarship, or research. #
#------------------------------------------------------------------------------#

ANGELCLAW
As recorded by Arch Enemy
(From the 1999 Album BURNING BRIDGES)

Transcribed by SoggieMufin
        

Words by Michael Amott Music by Michael Amott/Christopher Amott

Gtr I (B E A D F# B) - 'Untitled'
Gtr II (B E A D F# B) - 'Untitled'
Gtr III (B E A D F# B) - 'Untitled'
Gtr IV (B E A D F# B) - 'Untitled'

   Intro
    Q=140
    E5            B/D#       D5          C5        E5          B/D#
   4/4
    Gtr I
      |-3-|                                          |-3-|
    E S S S E E   E E +Q     E. S S S  E +Q.   E   E S S S E E E E +Q
||--7-5h7p5----------------|-------------------5-|-7-5h7p5---------------|
||o---------8-7------------|---------------------|---------8-7-----------|
||----------------5-4-(4)--|-5--4-5-4-/7-(7)-----|-------------5-4-(4)---|
||-------------------------|---------------------|-----------------------|
||o------------------------|---------------------|-----------------------|
||-------------------------|---------------------|-----------------------|
|
|   Gtr II
|     |-3-|                                          |-3-|
|   E S S S E E a E E +Q     E. S S S  E +Q.   E   E S S S E E E E +Q
||-------------------------|---------------------|-----------------------|
||o-8-7h8p7-5--------------|-------------------7-|-8-7h8p7-5-------------|
||------------7------------|---------------------|-----------7-----------|
||--------------9s7-5-(5)--|-7--5-7-5-/9-(9)-----|-------------7-5-(5)---|
||o------------------------|---------------------|-----------------------|
||-------------------------|---------------------|-----------------------|
|
|   Gtr III
|   H             H          H            Q.   E   H           H
||-------------------------|---------------------|-----------------------|
||o------------------------|---------------------|-----------------------|
||-------------------------|---------------------|-----------------------|
||--9-------------9--------|-7------------5----5-|-9-----------9---------|
||o-7-------------6--------|-5------------3----3-|-7-----------6---------|
||-------------------------|---------------------|-----------------------|


  D5         C5          E5                  B/D#
                               |--3--|
  E. S S S E +Q.   E         E S S   S E E   E E   +Q
|------------------5--||-||--7-5h7p==5-------------------|
|--------------------o||-||o-----------8-7---------------|
|-5--4-5-4------------||-||------------------5-4---(4)---|
|----------5-(5)------||-||------------------------------|
|--------------------o||-||o-----------------------------|
|---------------------||-||------------------------------|
|
|                              |--3--|
| E. S S S E +Q.   E         E S S   S E E a E E   +Q
|---------------------||-||------------------------------|
|------------------7-o||-||o-8-7h8p==7-5-----------------|
|---------------------||-||--------------7---------------|
|-7--5-7-5------------||-||----------------9s7-5---(5)---|
|----------7-(7)-----o||-||o-----------------------------|
|---------------------||-||------------------------------|
|
|                  PM--------------|     PM------|     PM-
| H           Q.   E         E S   S   E E   E S S  E  E
|---------------------||-||------------------------------|
|--------------------o||-||o-----------------------------|
|---------------------||-||------------------------------|
|-7-----------5-------||-||------------9------------9----|
|-5-----------3----3-o||-||o-7-7---7---7-7---6-6-6--6--6-|
|---------------------||-||------------------------------|


  D5            C5
  E.   S S S  E +Q.       E
|-------------------------5-|
|---------------------------|
|-5----4-5-4-/7-(7)---------|
|---------------------------|
|---------------------------|
|---------------------------|
|
| E.   S S S  E +Q.       E
|---------------------------|
|-------------------------7-|
|---------------------------|
|-7----5-7-5-/9-(9)---------|
|---------------------------|
|---------------------------|
|
|------|      PM------|   PM
| E  S S E    E  E  S S E E
|---------------------------|
|---------------------------|
|---------------------------|
|--------7--------------5---|
|-5--5-5-5----5--3--3-3-3-3-|
|---------------------------|


  E5              B/D#          D5           C5
    |--3--|
  E S S   S E E   E E   +Q      E.   S S S E +Q.       E
|-7-5h7p==5-------------------|------------------------5--||
|-----------8-7---------------|--------------------------o||
|-----------------5-4---(4)---|-5----4-5-4----------------||
|-----------------------------|------------5-(5)----------||
|-----------------------------|--------------------------o||
|-----------------------------|---------------------------||
|
|   |--3--|
| E S S   S E E a E E   +Q      E.   S S S E +Q.       E
|-----------------------------|---------------------------||
|-8-7h8p==7-5-----------------|------------------------7-o||
|-------------7---------------|---------------------------||
|---------------9s7-5---(5)---|-7----5-7-5----------------||
|-----------------------------|------------7-(7)---------o||
|-----------------------------|---------------------------||
|
| PM----|     PM------|     PM-------|     PM------|   PM
| E S   S   E E   E S S  E  E   E  S S E   E  E  S S E E
|-----------------------------|---------------------------||
|-----------------------------|--------------------------o||
|-----------------------------|---------------------------||
|-----------9------------9----|--------7-------------5----||
|-7-7---7---7-7---6-6-6--6--6-|-5--5-5-5---5--3--3-3-3-3-o||
|-----------------------------|---------------------------||


      N.C.(E5)              N.C.(B/D#)
          |--3--|
      E   S S   S E   E     E   E   +Q
|-||--7---5h7p==5------------------------------|
|-||o-------------8---7------------------------|
|-||------------------------5---4---(4)--------|
|-||-------------------------------------------|
|-||o------------------------------------------|
|-||-------------------------------------------|
|
|         |--3--|
|     E   S S   S E   E   a E   E   +Q
|-||-------------------------------------------|
|-||o-8---7h8p==7-5----------------------------|
|-||------------------7------------------------|
|-||----------------------9s7---5---(5)--------|
|-||o------------------------------------------|
|-||-------------------------------------------|
|
|     S S S   S   S S S S   S S S S  S  S S S
|-||-------------------------------------------|
|-||o------------------------------------------|
|-||-------------------------------------------|
|-||-------------------------------------------|
|-||o-7-7-7---7---7-7-7-7---6-6-6-6--6--6-6-6--|
|-||-------------------------------------------|


  1.
  N.C.(D5)          N.C.(C5)            N.C.(E5)              N.C.(B/D#)
                                            |--3--|
  E.     S S S  E   +Q.           E     E   S S   S E   E     E   E   +Q
|---------------------------------5---|-7---5h7p==5-----------------------------|
|-------------------------------------|-------------8---7-----------------------|
|-5------4-5-4-/7---(7)---------------|-----------------------5---4---(4)-------|
|-------------------------------------|-----------------------------------------|
|-------------------------------------|-----------------------------------------|
|-------------------------------------|-----------------------------------------|
|
|                                           |--3--|
| E.     S S S  E   +Q.           E     E   S S   S E   E   a E   E   +Q
|-------------------------------------|-----------------------------------------|
|---------------------------------7---|-8---7h8p==7-5---------------------------|
|-------------------------------------|-----------------7-----------------------|
|-7------5-7-5-/9---(9)---------------|---------------------9s7---5---(5)-------|
|-------------------------------------|-----------------------------------------|
|-------------------------------------|-----------------------------------------|
|
| S  S S S S S  S S  S  S S S S S S S   S S S   S   S S S S   S S S S  S  S S S
|-------------------------------------|-----------------------------------------|
|-------------------------------------|-----------------------------------------|
|-------------------------------------|-----------------------------------------|
|-------------------------------------|-----------------------------------------|
|-5--5-5-5-5-5--5-5--3--3-3-3-3-3-3-3-|-7-7-7---7---7-7-7-7---6-6-6-6--6--6-6-6-|
|-------------------------------------|-----------------------------------------|


  N.C.(D5)         N.C.(C5)
  E.     S S S E   +Q.           E
|--------------------------------5-----||
|-------------------------------------o||
|-5------4-5-4-------------------------||
|--------------5---(5)-----------------||
|-------------------------------------o||
|--------------------------------------||
|
| E.     S S S E   +Q.           E
|--------------------------------------||
|--------------------------------7----o||
|--------------------------------------||
|-7------5-7-5-------------------------||
|--------------7---(7)----------------o||
|--------------------------------------||
|
| S  S S S S S S S  S  S S S S S S S
|--------------------------------------||
|-------------------------------------o||
|--------------------------------------||
|--------------------------------------||
|-5--5-5-5-5-5-5-5--3--3-3-3-3-3-3-3--o||
|--------------------------------------||


  2.
  N.C.(D5)          N.C.(C5)
  E.     S S S  E   +Q.           E
|---------------------------------5---|
|-------------------------------------|
|-5------4-5-4-/7---(7)---------------|
|-------------------------------------|
|-------------------------------------|
|-------------------------------------|
|
| E.     S S S  E   +Q.           E
|-------------------------------------|
|---------------------------------7---|
|-------------------------------------|
|-7------5-7-5-/9---(9)---------------|
|-------------------------------------|
|-------------------------------------|
|
| S  S S S S S  S S  S  S S S S S S S
|-------------------------------------|
|-------------------------------------|
|-------------------------------------|
|-------------------------------------|
|-5--5-5-5-5-5--5-5--3--3-3-3-3-3-3-3-|
|-------------------------------------|


  N.C.(E5)              N.C.(B/D#)          N.C.(D5)         N.C.(C5)
      |--3--|
  E   S S   S E   E     E   E   +Q          E.     S S S E   +H
|-7---5h7p==5-----------------------------|-------------------------------------|
|-------------8---7-----------------------|-------------------------------------|
|-----------------------5---4---(4)-------|-5------4-5-4------------------------|
|-----------------------------------------|--------------5---(5)----------------|
|-----------------------------------------|-------------------------------------|
|-----------------------------------------|-------------------------------------|
|
|     |--3--|
| E   S S   S E   E   a E   E   +Q          E.     S S S E   +H
|-----------------------------------------|-------------------------------------|
|-8---7h8p==7-5---------------------------|-------------------------------------|
|-----------------7-----------------------|-------------------------------------|
|---------------------9s7---5---(5)-------|-7------5-7-5------------------------|
|-----------------------------------------|--------------7---(7)----------------|
|-----------------------------------------|-------------------------------------|
|
| S S S   S   S S S S   S S S S  S  S S S   S  S S S S S S S  S  S S S S S S S
|-----------------------------------------|-------------------------------------|
|-----------------------------------------|-------------------------------------|
|-----------------------------------------|-------------------------------------|
|-----------------------------------------|-------------------------------------|
|-7-7-7---7---7-7-7-7---6-6-6-6--6--6-6-6-|-5--5-5-5-5-5-5-5--3--3-3-3-3-3-3-3--|
|-----------------------------------------|-------------------------------------|


  E5
  Gtrs I, II
  W            +W          3x +W
|----------||--------------||--------|
|----------||o------------o||--------|
|----------||--------------||--------|
|-2--------||--(2)---------||-(2)----|
|-2--------||o-(2)--------o||-(2)----|
|-0--------||--(0)---------||-(0)----|


  Q=162
  N.C.
  Gtrs I, II
    PM--------|   PM--------|
  E S S +S  S E E S S +S  S E
|-----------------------------|
|-----------------------------|
|-----------------------------|
|-----------------------------|
|-----------------------------|
|-3-0-0-(0)-0-0-5-0-0-(0)-0-0-|


    PM----------------|     PM--------|   PM--------|
  E S S +S  S E E E E E   E S S +S  S E E S S +S  S E
|-----------------------|-----------------------------|
|-----------------------|-----------------------------|
|-----------------------|-----------------------------|
|-----------------------|-----------------------------|
|-------------------5-4-|-----------------------------|
|-6-0-0-(0)-0-0-5-6-----|-3-0-0-(0)-0-0-5-0-0-(0)-0-0-|


    PM--------------------|
  E S S +S  S E S S E S S E
|---------------------------|
|---------------------------|
|---------------------------|
|---------------------------|
|---------------------------|
|-6-0-0-(0)-0-0-1-1-1-1-1-1-|


    PM--------|   PM--------|     PM----------------|
  E S S +S  S E E S S +S  S E   E S S +S  S E E E E E
|-----------------------------|-----------------------|
|-----------------------------|-----------------------|
|-----------------------------|-----------------------|
|-----------------------------|-----------------------|
|-----------------------------|-------------------5-4-|
|-3-0-0-(0)-0-0-5-0-0-(0)-0-0-|-6-0-0-(0)-0-0-5-6-----|


  Gtr I
                                 \2
    PM--------|   PM--------|    ~~~
  E S S +S  S E E S S +S  S E    W
|-----------------------------|--------|
|-----------------------------|-<3>----|
|-----------------------------|--------|
|-----------------------------|--------|
|-----------------------------|--------|
|-3-0-0-(0)-0-0-5-0-0-(0)-0-0-|--------|
|
| Gtr II
|   PM--------|   PM--------|
| E S S +S  S E E S S +S  S E    W
|-----------------------------|--------|
|-----------------------------|--------|
|-----------------------------|--------|
|-----------------------------|--------|
|-----------------------------|--------|
|-3-0-0-(0)-0-0-5-0-0-(0)-0-0-|--------|


 Verse
  $
  $$
  N.C.
  Gtrs I, II
    PM--------|   PM--------|
  E S S +S  S E E S S +S  S E
|-----------------------------|
|-----------------------------|
|-----------------------------|
|-----------------------------|
|-----------------------------|
|-3-0-0-(0)-0-0-5-0-0-(0)-0-0-|


    PM----------------|     PM--------|   PM--------|
  E S S +S  S E E E E E   E S S +S  S E E S S +S  S E
|-----------------------|-----------------------------|
|-----------------------|-----------------------------|
|-----------------------|-----------------------------|
|-----------------------|-----------------------------|
|-------------------5-4-|-----------------------------|
|-6-0-0-(0)-0-0-5-6-----|-3-0-0-(0)-0-0-5-0-0-(0)-0-0-|


    PM--------------------|
  E S S +S  S E S S E S S E
|---------------------------|
|---------------------------|
|---------------------------|
|---------------------------|
|---------------------------|
|-6-0-0-(0)-0-0-1-1-1-1-1-1-|


    PM--------|   PM--------|     PM----------------|
  E S S +S  S E E S S +S  S E   E S S +S  S E E E E E
|-----------------------------|-----------------------|
|-----------------------------|-----------------------|
|-----------------------------|-----------------------|
|-----------------------------|-----------------------|
|-----------------------------|-------------------5-4-|
|-3-0-0-(0)-0-0-5-0-0-(0)-0-0-|-6-0-0-(0)-0-0-5-6-----|


  Gtr I
    PM--------|   PM--------|
  E S S +S  S E E S S +S  S E
|-----------------------------|
|-----------------------------|
|-----------------------------|
|-----------------------------|
|-----------------------------|
|-3-0-0-(0)-0-0-5-0-0-(0)-0-0-|
|
| Gtr II
|   PM--------|   PM--------|
| E S S +S  S E E S S +S  S E
|-----------------------------|
|-----------------------------|
|-----------------------------|
|-----------------------------|
|-----------------------------|
|-3-0-0-(0)-0-0-5-0-0-(0)-0-0-|


                               Pre Chorus
                                Q=173
                                Am     B°
    PM--------------------|        PM|    PM----|
  E S S +S  S E S S E S S E      E E E  E E E E E
|---------------------------||--------------------|
|---------------------------||o-------------------|
|---------------------------||---9-----10---------|
|---------------------------||--10-----12---------|
|---------------------------||o----0-0----0-0-0-0-|
|-6-0-0-(0)-0-0-1-1-1-1-1-1-||--------------------|
|
|   PM--------------------|        PM|    PM----|
| E S S +S  S E S S E S S E      E E E  E E E E E
|---------------------------||--------------------|
|---------------------------||o-------------------|
|---------------------------||---5------7---------|
|---------------------------||---7------9---------|
|---------------------------||o----0-0----0-0-0-0-|
|-6-0-0-(0)-0-0-1-1-1-1-1-1-||--------------------|


                                                      D.S.
  C      Dm           Am     B°           Dm     C
     PM|    PM----|      PM|    PM----|      PM|    PM----|
   E E E  E E E E E    E E E  E E E E E    E E E  E E E E E
|-------------------|-------------------|--------------------||
|-------------------|-------------------|-------------------o||
|-12-----14---------|--9-----10---------|-14-----12----------||
|-14-----15---------|-10-----12---------|-15-----14----------||
|----0-0----0-0-0-0-|----0-0----0-0-0-0-|----0-0----0-0-0-0-o||
|-------------------|-------------------|--------------------||
|
|    PM|    PM----|      PM|    PM----|      PM|    PM----|
|  E E E  E E E E E    E E E  E E E E E    E E E  E E E E E
|-------------------|-------------------|--------------------||
|-------------------|-------------------|-------------------o||
|--9-----10---------|--5------7---------|-10------9----------||
|-10-----12---------|--7------9---------|-12-----10----------||
|----0-0----0-0-0-0-|----0-0----0-0-0-0-|----0-0----0-0-0-0-o||
|-------------------|-------------------|--------------------||


   Chorus
    Q=160
    A5                 F5      G5
    Gtr I
    Q  E E +E  E E E   Q   E E +E   S S Q
||-------------------|---------------------|
||o------------------|---------------------|
||--9--7-5-(5)-5-7-9-|----10-9-(9)-10-9-7--|
||-------------------|-7-------------------|
||o------------------|---------------------|
||-------------------|---------------------|
|
|   Gtr II
|   Q  E E +E  E E E   Q   E E +E   S S Q
||-------------------|---------------------|
||o------------------|---------------------|
||--5--4---------4-5-|-----7-5-(5)--7-5-4--|
||-------7-(7)-7-----|-3-------------------|
||o------------------|---------------------|
||-------------------|---------------------|
|
|   Gtr III
|   W                  H        H
||-------------------|---------------------|
||o------------------|---------------------|
||-------------------|---------------------|
||-------------------|---------------------|
||o-7----------------|-3--------5----------|
||--5----------------|-1--------3----------|


                            D.S.S.
  A5                 F5       G5
  Q  E E +E  E E E   Q    E E +H
|------------------|------------------||
|------------------|-----------------o||
|-9--7-5-(5)-5-7-9-|------------------||
|------------------|-7--/10-9-(9)-----||
|------------------|-----------------o||
|------------------|------------------||
|
| Q  E E +E  E E E   Q    E E +H
|------------------|------------------||
|------------------|-----------------o||
|-5--4---------4-5-|------------------||
|------7-(7)-7-----|-3---/7-5-(5)-----||
|------------------|-----------------o||
|------------------|------------------||
|
| W                  H         H
|------------------|------------------||
|------------------|-----------------o||
|------------------|------------------||
|------------------|------------------||
|-7----------------|-3---------5-----o||
|-5----------------|-1---------3------||


 Bridge
  Q=165
  N.C.                                                   D
  Gtr I
  E E q  E E E E   H    E E Q    E E q  E E E E   H    E Q.
|----------------|-------------|----------------|--------------|
|----------------|-------------|----------------|--------7-----|
|----------------|-------------|----------------|--------------|
|-5-4-5----------|------4-2-4--|-5-4-5----------|--------7-----|
|----------2-3-4-|-------------|----------2-3-4-|--------5-----|
|----------------|-------------|----------------|--------------|
|
| Gtr II
| E E q  E E E E   H    E E Q    E E q  E E E E   H    E Q.
|----------------|-------------|----------------|--------------|
|----------------|-------------|----------------|--------------|
|----------------|-------------|----------------|--------------|
|----------------|-------------|----------------|--------7-----|
|-7-5-7----------|------5-4-5--|-7-5-7----------|--------5-----|
|----------3-4-5-|-------------|----------3-4-5-|--------------|


  N.C.
  E E q  E E E E   H    E E Q    E E q  E E E E   W
|----------------|-------------|----------------|------|
|----------------|-------------|----------------|------|
|----------------|-------------|----------------|------|
|-5-4-5----------|------4-2-4--|-5-4-5----------|------|
|----------2-3-4-|-------------|----------2-3-4-|------|
|----------------|-------------|----------------|------|
|
| E E q  E E E E   H    E E Q    E E q  E E E E   W
|----------------|-------------|----------------|------|
|----------------|-------------|----------------|------|
|----------------|-------------|----------------|------|
|----------------|-------------|----------------|------|
|-7-5-7----------|------5-4-5--|-7-5-7----------|------|
|----------3-4-5-|-------------|----------3-4-5-|------|


 Lead - M. Amott
  N.C.
  Gtr III
                                                \1
  S S S S S S S S S S E S S S S   S S S S S S E Q    Q
|-------------------------------|-----------------------|
|-8p7---------------------------|-----------------------|
|-----9p7-9p7-------------------|-----------------------|
|-------------9p7-8p7p5-7p5-----|-----------------------|
|---------------------------7p5-|-7p5----------------5--|
|-------------------------------|-----7p5-7p5p3-0-------|
|
| Gtr I
| E   E   q       E   E E   E     H             E  E Q
|-------------------------------|-----------------------|
|-------------------------------|-----------------------|
|-------------------------------|-----------------------|
|-5---4---5---------------------|---------------4--2-4--|
|---------------------2-3---4---|-----------------------|
|-------------------------------|-----------------------|
|
| Gtr II
| E   E   q       E   E E   E     H             E  E Q
|-------------------------------|-----------------------|
|-------------------------------|-----------------------|
|-------------------------------|-----------------------|
|-------------------------------|-----------------------|
|-7---5---7---------------------|---------------5--4-5--|
|---------------------3-4---5---|-----------------------|


                                            D
  \4             \2/       \2/     \2/  \2/
  H..            E     +E  E   +E  E   +H
|----------------0---|-(0)-0---(0)-0---(0)--------|
|--------------------|----------------------------|
|--------------------|----------------------------|
|--------------------|----------------------------|
|--------------------|----------------------------|
|-0------------------|----------------------------|
|
| E   E q  E E E E      H               E   Q.
|--------------------|----------------------------|
|--------------------|----------------------7-----|
|--------------------|----------------------------|
|-5---4-5------------|----------------------7-----|
|------------2-3-4---|----------------------5-----|
|--------------------|----------------------------|
|
| E   E q  E E E E      H               E   Q.
|--------------------|----------------------------|
|--------------------|----------------------------|
|--------------------|----------------------------|
|--------------------|----------------------7-----|
|-7---5-7------------|----------------------5-----|
|------------3-4-5---|----------------------------|


  N.C.
      \2/   \2/ \2/   \2/
  PM
  |----3----|   |------3------|
  Q   Q     Q   Q     Q     a Q     +H     +E    E  Q
|---------------------------------|--------------------|
|-8---7-----7---7-----7-----7h8---|-(8)----(8)S/17\----|
|---------------------------------|--------------------|
|---------------------------------|--------------------|
|---------------------------------|--------------------|
|---------------------------------|--------------------|
|
| E E     q     E   E     E     E    H      E    E  Q
|---------------------------------|--------------------|
|---------------------------------|--------------------|
|---------------------------------|--------------------|
|-5-4-----5-----------------------|---------4----2--4--|
|-------------------2-----3-----4-|--------------------|
|---------------------------------|--------------------|
|
| E E     q     E   E     E     E    H      E    E  Q
|---------------------------------|--------------------|
|---------------------------------|--------------------|
|---------------------------------|--------------------|
|---------------------------------|--------------------|
|-7-5-----7-----------------------|---------5----4--5--|
|-------------------3-----4-----5-|--------------------|


                                                                        ~~~~~
   |---3---|  |--3--|  |---3---|
   E  E    E  E  E  E  E  E    E  E  E       +Q        +E       +S   S  H
|-----------------------------------------|-------------------------------------|
|-13s15------15s17----17-20------20-22b24-|-(22)pb24--(22)pb24r(22)-20----------|
|---------12-------14---------17----------|----------------------------19b21----|
|-----------------------------------------|-------------------------------------|
|-----------------------------------------|-------------------------------------|
|-----------------------------------------|-------------------------------------|
|
|  E    E     q        E    E     E  E        W
|-----------------------------------------|-------------------------------------|
|-----------------------------------------|-------------------------------------|
|-----------------------------------------|-------------------------------------|
|--5----4-----5---------------------------|-------------------------------------|
|---------------------------2-----3--4----|-------------------------------------|
|-----------------------------------------|-------------------------------------|
|
|  E    E     q        E    E     E  E        W
|-----------------------------------------|-------------------------------------|
|-----------------------------------------|-------------------------------------|
|-----------------------------------------|-------------------------------------|
|-----------------------------------------|-------------------------------------|
|--7----5-----7---------------------------|-------------------------------------|
|---------------------------3-----4--5----|-------------------------------------|


                                                ~~~~~~~
   H           +E       E  E  E    E   E  S  S  E  +Q     Q
|-19b22-------(19)pb22-19-18-18-|-17-------------------------|
|-------------------------------|-----20-17-20-17-(17)---12s=|
|-------------------------------|----------------------------|
|-------------------------------|----------------------------|
|-------------------------------|----------------------------|
|-------------------------------|----------------------------|
|
|  E    E Q.            E  E  E   +H                E  E  Q
|-------------------------------|----------------------------|
|-------------------------------|----------------------------|
|-------------------------------|----------------------------|
|--5----4-5---------------------|-------------------4--2--4--|
|-----------------------2--3--4-|-(4)------------------------|
|-------------------------------|----------------------------|
|
|  E    E Q.            E  E  E   +H                E  E  Q
|-------------------------------|----------------------------|
|-------------------------------|----------------------------|
|-------------------------------|----------------------------|
|-------------------------------|----------------------------|
|--7----5-7---------------------|-------------------5--4--5--|
|-----------------------3--4--5-|-(5)------------------------|


                                          D
                                    ~~~
   E  E  E  E  E  E  E  E    E   E  H.
|----17-------15-------17-|--------15----------|
|-14----14s12----12s14----|-14s=12-------------|
|-------------------------|--------------------|
|-------------------------|--------------------|
|-------------------------|--------------------|
|-------------------------|--------------------|
|
|  E  E  Q.       E  E  E   +H          E Q.
|-------------------------|--------------------|
|-------------------------|---------------7----|
|-------------------------|--------------------|
|--5--4--5----------------|---------------7----|
|-----------------2--3--4-|-(4)-----------5----|
|-------------------------|--------------------|
|
|  E  E  Q.       E  E  E   +H          E Q.
|-------------------------|--------------------|
|-------------------------|--------------------|
|-------------------------|--------------------|
|-------------------------|---------------7----|
|--7--5--7----------------|---------------5----|
|-----------------3--4--5-|-(5)----------------|


  N.C.
               |--------3--------|
   H           E     +E         +E   E  E    +W
|-----------------------------------------|----------------|
|-15b17-------15b17-(15)pb17r==(15)-12-15-|-(15)-----------|
|-----------------------------------------|----------------|
|-----------------------------------------|----------------|
|-----------------------------------------|----------------|
|-----------------------------------------|----------------|
|
|  E    E Q.                 E       E  E    +H     E E Q
|-----------------------------------------|----------------|
|-----------------------------------------|----------------|
|-----------------------------------------|----------------|
|--5----4-5-------------------------------|---------4-2-4--|
|----------------------------2-------3--4-|--(4)-----------|
|-----------------------------------------|----------------|
|
|  E    E Q.                 E       E  E    +H     E E Q
|-----------------------------------------|----------------|
|-----------------------------------------|----------------|
|-----------------------------------------|----------------|
|-----------------------------------------|----------------|
|--7----5-7-------------------------------|---------5-4-5--|
|----------------------------3-------4--5-|--(5)-----------|


                                                                               H.=H
   E     +E       E   E     +Q         E  E       +Q        E  E     +Q         +E       +S   S
|----------------------------------------------|------------------------------------------------|
|----------------15-------------------15-------|-----------15-----------------------------------|
|-14b16-(14)pb16-----14b16-(14)pb16------14b16-|-(14)pb16-----14b16-(14)pb16---(14)pb16r(14)-12-|
|----------------------------------------------|------------------------------------------------|
|----------------------------------------------|------------------------------------------------|
|----------------------------------------------|------------------------------------------------|
|
|  E      E       Q.                E  E  E       +H                  E      E   Q
|----------------------------------------------|------------------------------------------------|
|----------------------------------------------|------------------------------------------------|
|----------------------------------------------|------------------------------------------------|
|--5------4-------5----------------------------|----------------------4------2---4--------------|
|-----------------------------------2--3--4----|--(4)-------------------------------------------|
|----------------------------------------------|------------------------------------------------|
|
|  E      E       Q.                E  E  E       +H                  E      E   Q
|----------------------------------------------|------------------------------------------------|
|----------------------------------------------|------------------------------------------------|
|----------------------------------------------|------------------------------------------------|
|----------------------------------------------|------------------------------------------------|
|--7------5-------7----------------------------|----------------------5------4---5--------------|
|-----------------------------------3--4--5----|--(5)-------------------------------------------|


 Interlude
  Q=140
  N.C.
   >
   ~~
   W
|---------------------------------------|
|---------------------------------------|
|-14------------------------------------|
|---------------------------------------|
|---------------------------------------|
|---------------------------------------|
|
|    PM|       PM--|    PM|       PM--|
|  S S S  S  S S S S  S S S  S  S S S S
|---------------------------------------|
|---------------------------------------|
|---------------------------------------|
|---------------------------------------|
|-15-0-0-14-15-0-0-0-14-0-0-12-14-0-0-0-|
|---------------------------------------|
|
|    PM|       PM--|    PM|       PM--|
|  S S S  S  S S S S  S S S  S  S S S S
|---------------------------------------|
|---------------------------------------|
|---------------------------------------|
|---------------------------------------|
|-15-0-0-14-15-0-0-0-14-0-0-12-14-0-0-0-|
|---------------------------------------|


   W
|---------------------------------------------|
|---------------------------------------------|
|---------------------------------------------|
|---------------------------------------------|
|---------------------------------------------|
|---------------------------------------------|
|
|    PM|       PM-------------------------|
|  S S S  S  S S S S  S  S  S  S  S  S  S  S
|---------------------------------------------|
|---------------------------------------------|
|---------------------------------------------|
|---------------------------------------------|
|-12-0-0-11-12-0-0-0----------14-15-14-15-17--|
|--------------------17-16-17-----------------|
|
|    PM|       PM-------------------------|
|  S S S  S  S S S S  S  S  S  S  S  S  S  S
|---------------------------------------------|
|---------------------------------------------|
|---------------------------------------------|
|---------------------------------------------|
|-12-0-0-11-12-0-0-0--0--0--0--0--0--0--0--0--|
|---------------------------------------------|


  Gtr I
     PM|       PM--|    PM|       PM--|      PM|       PM------------------|
   S S S  S  S S S S  S S S  S  S S S S    S S S  S  S S S S S S S S S S S S
|---------------------------------------|------------------------------------|
|---------------------------------------|------------------------------------|
|---------------------------------------|------------------------------------|
|---------------------------------------|------------------------------------|
|-19-0-0-17-19-0-0-0-17-0-0-15-17-0-0-0-|-15-0-0-14-15-0-0-0-0-0-0-0-0-0-0-0-|
|---------------------------------------|------------------------------------|
|
| Gtr II
|    PM|       PM--|    PM|       PM--|      PM|       PM------------------|
|  S S S  S  S S S S  S S S  S  S S S S    S S S  S  S S S S S S S S S S S S
|---------------------------------------|------------------------------------|
|---------------------------------------|------------------------------------|
|---------------------------------------|------------------------------------|
|---------------------------------------|------------------------------------|
|-15-0-0-14-15-0-0-0-14-0-0-12-14-0-0-0-|-12-0-0-11-12-0-0-0-0-0-0-0-0-0-0-0-|
|---------------------------------------|------------------------------------|


     PM|       PM--|    PM|       PM--|
   S S S  S  S S S S  S S S  S  S S S S
|---------------------------------------|
|---------------------------------------|
|---------------------------------------|
|---------------------------------------|
|-15-0-0-14-15-0-0-0-14-0-0-12-14-0-0-0-|
|---------------------------------------|
|
|    PM|       PM--|    PM|       PM--|
|  S S S  S  S S S S  S S S  S  S S S S
|---------------------------------------|
|---------------------------------------|
|---------------------------------------|
|---------------------------------------|
|-15-0-0-14-15-0-0-0-14-0-0-12-14-0-0-0-|
|---------------------------------------|


     PM|       PM-------------------------|
   S S S  S  S S S S  S  S  S  S  S  S  S  S
|--------------------------------------------|
|--------------------------------------------|
|--------------------------------------------|
|--------------------------------------------|
|-12-0-0-11-12-0-0-0----------14-15-14-15-17-|
|--------------------17-16-17----------------|
|
|    PM|       PM-------------------------|
|  S S S  S  S S S S  S  S  S  S  S  S  S  S
|--------------------------------------------|
|--------------------------------------------|
|--------------------------------------------|
|--------------------------------------------|
|-12-0-0-11-12-0-0-0--0--0--0--0--0--0--0--0-|
|--------------------------------------------|


  Gtr III
   W
|---------------------------------------|
|---------------------------------------|
|---------------------------------------|
|---------------------------------------|
|---------------------------------------|
|---------------------------------------|
|
| Gtr I
|    PM|       PM--|    PM|       PM--|
|  S S S  S  S S S S  S S S  S  S S S S
|---------------------------------------|
|---------------------------------------|
|---------------------------------------|
|---------------------------------------|
|-19-0-0-17-19-0-0-0-17-0-0-15-17-0-0-0-|
|---------------------------------------|
|
| Gtr II
|    PM|       PM--|    PM|       PM--|
|  S S S  S  S S S S  S S S  S  S S S S
|---------------------------------------|
|---------------------------------------|
|---------------------------------------|
|---------------------------------------|
|-15-0-0-14-15-0-0-0-14-0-0-12-14-0-0-0-|
|---------------------------------------|


                     Q=145
                      |------6-------|  |-----6------|
   H                  S  S  S  S  S  S  S  S S  S  S S
|--------------------13p12p10--------------------------|
|-----------------------------13p12p10-----------------|
|--------------------------------------12p10p9---------|
|----------------------------------------------12p10p9-|
|------------------------------------------------------|
|------------------------------------------------------|
|
|    PM|       PM--|
|  S S S  S  S S S S  H
|------------------------------------------------------|
|------------------------------------------------------|
|------------------------------------------------------|
|------------------------------------------------------|
|-15-0-0-14-15-0-0-0-----------------------------------|
|------------------------------------------------------|
|
|    PM|       PM--|
|  S S S  S  S S S S  H
|------------------------------------------------------|
|------------------------------------------------------|
|------------------------------------------------------|
|------------------------------------------------------|
|-12-0-0-11-12-0-0-0-----------------------------------|
|------------------------------------------------------|


 Lead - C, Amott
  C5       G5          A5                      F5
   Q  E  E  Q   E  E    E.     +S       +E   E  Q   E E
|--------------------|----------------------------------|
|--------------10-12-|-12pb13-(12)pb13r(12)-10----------|
|-----9-10-12--------|-------------------------12--10-9-|
|-10-----------------|----------------------------------|
|--------------------|----------------------------------|
|--------------------|----------------------------------|
|
|  H        H           H                       H
|--------------------|----------------------------------|
|--------------------|----------------------------------|
|--------------------|----------------------------------|
|--5-----------------|----------------------------------|
|--3--------5--------|--7-----------------------3-------|
|-----------3--------|--5-----------------------1-------|
|
|  H        H           H                       H
|--------------------|----------------------------------|
|--------------------|----------------------------------|
|--5-----------------|----------------------------------|
|-----------5--------|--7-----------------------3-------|
|--3-----------------|----------------------------------|
|-----------3--------|--5-----------------------1-------|


  C5       G5      Ab5               Bb5
                    |--3--|  |--3--|
   Q  E  E  H       E  E  E  E  E  E  Q   Q
|----------------|-18-16-15------------------|
|----------------|----------18-16-15---------|
|-----9-10-12----|-------------------17--15--|
|-10-------------|---------------------------|
|----------------|---------------------------|
|----------------|---------------------------|
|
|  H        H       H                 H
|----------------|---------------------------|
|----------------|---------------------------|
|----------------|---------------------------|
|--5-------------|---------------------------|
|--3--------5----|--6-----------------8------|
|-----------3----|--4-----------------6------|
|
|  H        H       H                 H
|----------------|---------------------------|
|----------------|---------------------------|
|--5-------------|---------------------------|
|-----------5----|--6-----------------8------|
|--3-------------|---------------------------|
|-----------3----|--4-----------------6------|


  C5          G5      A5       F5
                                ~~~~~~
                       |--3--|
   E  E  E  E  H       Q  Q  Q  H
|-------------17----|-20-22-24-24pb25----|
|----17-18-20-------|--------------------|
|-17----------------|--------------------|
|-------------------|--------------------|
|-------------------|--------------------|
|-------------------|--------------------|
|
|  H           H       H        H
|-------------------|--------------------|
|-------------------|--------------------|
|-------------------|--------------------|
|--5----------------|--------------------|
|--3-----------5----|--7--------3--------|
|--------------3----|--5--------1--------|
|
|  H           H       H        H
|-------------------|--------------------|
|-------------------|--------------------|
|--5----------------|--------------------|
|--------------5----|--7--------3--------|
|--3----------------|--------------------|
|--------------3----|--5--------1--------|


  C5                                  G5      Ab5           Bb5
                                                             ~~
   |------6-------|  |------6-------|
   S  S  S  S  S  S  S  S  S  S  S  S  H       Q       +Q    H
|-20-17-19-20-19-17-20-17-19-20-19-17-20----|-22b23===(22)r=22----|
|-------------------------------------------|---------------------|
|-------------------------------------------|---------------------|
|-------------------------------------------|---------------------|
|-------------------------------------------|---------------------|
|-------------------------------------------|---------------------|
|
|  H                                   H       H             H
|-------------------------------------------|---------------------|
|-------------------------------------------|---------------------|
|-------------------------------------------|---------------------|
|--5----------------------------------------|---------------------|
|--3-----------------------------------5----|--6-------------8----|
|--------------------------------------3----|--4-------------6----|
|
|  H                                   H       H             H
|-------------------------------------------|---------------------|
|-------------------------------------------|---------------------|
|--5----------------------------------------|---------------------|
|--------------------------------------5----|--6-------------8----|
|--3----------------------------------------|---------------------|
|--------------------------------------3----|--4-------------6----|


   Chorus
    Q=150
    A5                 F5      G5
    Gtr I
    Q  E E +E  E E E   Q   E E +E   S S Q
||-------------------|---------------------|
||o------------------|---------------------|
||--9--7-5-(5)-5-7-9-|----10-9-(9)-10-9-7--|
||-------------------|-7-------------------|
||o------------------|---------------------|
||-------------------|---------------------|
|
|   Gtr II
|   Q  E E +E  E E E   Q   E E +E   S S Q
||-------------------|---------------------|
||o------------------|---------------------|
||--5--4---------4-5-|-----7-5-(5)--7-5-4--|
||-------7-(7)-7-----|-3-------------------|
||o------------------|---------------------|
||-------------------|---------------------|
|
|   Gtr III
|   W                  H        H
||-------------------|---------------------|
||o------------------|---------------------|
||-------------------|---------------------|
||-------------------|---------------------|
||o-7----------------|-3--------5----------|
||--5----------------|-1--------3----------|


  A5                 F5       G5
  Q  E E +E  E E E   Q    E E +H
|------------------|------------------||
|------------------|-----------------o||
|-9--7-5-(5)-5-7-9-|------------------||
|------------------|-7--/10-9-(9)-----||
|------------------|-----------------o||
|------------------|------------------||
|
| Q  E E +E  E E E   Q    E E +H
|------------------|------------------||
|------------------|-----------------o||
|-5--4---------4-5-|------------------||
|------7-(7)-7-----|-3---/7-5-(5)-----||
|------------------|-----------------o||
|------------------|------------------||
|
| W                  H         H
|------------------|------------------||
|------------------|-----------------o||
|------------------|------------------||
|------------------|------------------||
|-7----------------|-3---------5-----o||
|-5----------------|-1---------3------||


 Outro Lead - M. Amott
  A5
  Gtr IV
   S     +S       S  S     +S       S  S     +S       S   S     +S       S  S     S  S     S
|----------------17----------------17----------------17-----------------17-------17-------17-|
|-20b22-(20)pb22----20b22-(20)pb22----20b22-(20)pb22-----20b22-(20)pb22----20b22----20b22----|
|--------------------------------------------------------------------------------------------|
|--------------------------------------------------------------------------------------------|
|--------------------------------------------------------------------------------------------|
|--------------------------------------------------------------------------------------------|
|
| Gtrs I, II
|  Q                        E          E             +E          E          E        E
|--------------------------------------------------------------------------------------------|
|--5------------------------3-----------------------------------------------3--------5-------|
|--5------------------------4----------5-------------(5)---------5----------4--------5-------|
|--------------------------------------7-------------(7)---------7---------------------------|
|--------------------------------------------------------------------------------------------|
|--------------------------------------------------------------------------------------------|
|  Q                        E          E             +E          E          E        E
|
| Gtr III
|  W
|--------------------------------------------------------------------------------------------|
|--------------------------------------------------------------------------------------------|
|--------------------------------------------------------------------------------------------|
|--------------------------------------------------------------------------------------------|
|--7-----------------------------------------------------------------------------------------|
|--5-----------------------------------------------------------------------------------------|


  F5                                  G5
   S     S  S     S  S     S  S     S  S     S  S     S  S     S  S     S
|-------17-------17-------17-------17-------17-------17-------17-------17-|
|-20b22----20b22----20b22----20b22----20b22----20b22----20b22----20b22----|
|-------------------------------------------------------------------------|
|-------------------------------------------------------------------------|
|-------------------------------------------------------------------------|
|-------------------------------------------------------------------------|
|
|  Q                 E        E       +E        S     S  Q
|-------------------------------------------------------------------------|
|--------------------6--------5-------(5)-------6-----5--3----------------|
|--2-----------------7--------5-------(5)-------7-----5--4----------------|
|--3----------------------------------------------------------------------|
|-------------------------------------------------------------------------|
|-------------------------------------------------------------------------|
|  Q                 E        E       +E        S     S  Q
|
|  H                                   H
|-------------------------------------------------------------------------|
|-------------------------------------------------------------------------|
|-------------------------------------------------------------------------|
|-------------------------------------------------------------------------|
|--3-----------------------------------5----------------------------------|
|--1-----------------------------------3----------------------------------|


  A5
   S  S  S  S  S  S  S  S  S   S  S  S  S  S  S  S
|-20p17----17-20p17----17--------------------------|
|-------20----------20----20p=17----17-------------|
|--------------------------------20----19p17-19p17-|
|--------------------------------------------------|
|--------------------------------------------------|
|--------------------------------------------------|
|
|  Q           E     E    +E      E     E     E
|--------------------------------------------------|
|--5-----------3------------------------3-----5----|
|--5-----------4-----5----(5)-----5-----4-----5----|
|--------------------7----(7)-----7----------------|
|--------------------------------------------------|
|--------------------------------------------------|
|  Q           E     E    +E      E     E     E
|
|  W
|--------------------------------------------------|
|--------------------------------------------------|
|--------------------------------------------------|
|--------------------------------------------------|
|--7-----------------------------------------------|
|--5-----------------------------------------------|


  F5                      G5
   S  S  S  S  S  S  S  S  S   S  S  S  S  S  S  S
|--------------------------------------------------|
|--------------------------------------------------|
|--------------------------------------------------|
|-19p17-19p17--------------------------------------|
|-------------19p17-19p17-17p=15-17p15-------------|
|--------------------------------------17p15-17p15-|
|
|  Q           E     E    +H
|--------------------------------------------------|
|--------------------------------------------------|
|--2----------/5-----4----(4)----------------------|
|--3----------/7-----5----(5)----------------------|
|--------------------------------------------------|
|--------------------------------------------------|
|  Q           E     E    +H
|
|  H                       H
|--------------------------------------------------|
|--------------------------------------------------|
|--------------------------------------------------|
|--------------------------------------------------|
|--3-----------------------5-----------------------|
|--1-----------------------3-----------------------|


  A5
    E  +S   S  +E   E  +E   E  E  E
|-/20-(20)-19-(19)-17-(17)-17-19-20-|
|-----------------------------------|
|-----------------------------------|
|-----------------------------------|
|-----------------------------------|
|-----------------------------------|
|
|   Q           E   E  +E   E  E  E
|-----------------------------------|
|---5-----------3--------------3--5-|
|---5-----------4---5--(5)--5--4--5-|
|-------------------7--(7)--7-------|
|-----------------------------------|
|-----------------------------------|
|   Q           E   E  +E   E  E  E
|
|   W
|-----------------------------------|
|-----------------------------------|
|-----------------------------------|
|-----------------------------------|
|---7-------------------------------|
|---5-------------------------------|


  F5        G5            A5
   Q   E  E  +H             E  +S   S  +E   E  +E   E  E  E
|-15--17-15-(15)--------|-/20-(20)-19-(19)-17-(17)-17-19-20-|
|-----------------------|-----------------------------------|
|-----------------------|-----------------------------------|
|-----------------------|-----------------------------------|
|-----------------------|-----------------------------------|
|-----------------------|-----------------------------------|
|
|  Q   E  E  +E  S S Q      Q           E   E  +E   E  E  E
|-----------------------|-----------------------------------|
|------6--5--(5)-6-5-3--|---5-----------3--------------3--5-|
|--2---7--5--(5)-7-5-4--|---5-----------4---5--(5)--5--4--5-|
|--3--------------------|-------------------7--(7)--7-------|
|-----------------------|-----------------------------------|
|-----------------------|-----------------------------------|
|  Q   E  E  +E  S S Q      Q           E   E  +E   E  E  E
|
|  H          H             W
|-----------------------|-----------------------------------|
|-----------------------|-----------------------------------|
|-----------------------|-----------------------------------|
|-----------------------|-----------------------------------|
|--3----------5---------|---7-------------------------------|
|--1----------3---------|---5-------------------------------|


  F         G
   q.         q.             q
|-20b22-----(20)b22--------(20)b22--|
|-----------------------------------|
|-----------------------------------|
|-----------------------------------|
|-----------------------------------|
|-----------------------------------|
|
|  Q      E   E     +E  Q.
|-----------------------------------|
|-----------------------------------|
|--2-----/5---4-----(4)-------------|
|--3-----/7---5-----(5)-------------|
|-----------------------------------|
|-----------------------------------|
|  Q      E   E     +E  Q.
|
|  Q      E   E     +E  Q.
|-----------------------------------|
|-----------------------------------|
|-----------------------------------|
|---------3---0-----(0)-------------|
|--3------3---2-----(2)-------------|
|--5--------------------------------|
   Q      E   E     +E  Q.


  F     G            F     G       (C(G/B(Am)
  W                  W                   W
|------------------|-------------------|----------*|
|------------------|-------------------|----------*|
|------------------|-------------------|----------*|
|------------------|-------------------|----------*|
|------------------|-------------------|----------*|
|------------------|-------------------|----------*|
|
| Gtrs I, II
|                          ~~~~~~
| Q   E E +E  Q.     Q   E E +E  E E E   Q  H.
|------------------|-------------------|----------*|
|------------------|---------------5-3-|-1--------*|
|-2--/5-4-(4)------|-2--/5-4-(4)-4-5-4-|-2--------*|
|-3--/7-5-(5)------|-3--/7-5-(5)-5-----|----------*|
|------------------|-------------------|----------*|
|------------------|-------------------|----------*|
| Q   E E +E  Q.     Q   E E +E  E E E   Q  H.
|
| Gtr III
|                          ~~~~~~
| Q   E E +E  Q.     Q   E E +Q    E E   Q  H.
|------------------|-------------------|----------*|
|------------------|-------------------|----------*|
|------------------|-------------------|----------*|
|-----3-0-(0)------|-----2-0-(0)---2-0-|----------*|
|-3---3-2-(2)------|-3---3-2-(2)---3-2-|-3--------*|
|-5----------------|-5-----------------|-5--------*|
  Q   E E +E  Q.     Q   E E +Q    E E   Q  H.



Duration Legend
---------------
W - whole; H - half; Q - quarter; E - 8th; S - 16th; T - 32nd; X - 64th; a - acciaccatura
+ - note tied to previous; . - note dotted; .. - note double dotted
Uncapitalized letters represent notes that are staccato (1/2 duration)
Irregular groupings are notated above the duration line
Duration letters will always appear directly above the note/fret number it represents the
duration for.  Duration letters with no fret number below them represent rests.  Multi-
bar rests are notated in the form Wxn, where n is the number of bars to rest for.  Low
melody durations appear below the staff

Tablature Legend
----------------
 h   - hammer-on
 p   - pull-off
 b   - bend
 pb  - pre-bend
 r   - bend release (if no number after the r, then release immediately)
 /\  - slide into or out of (from/to "nowhere")
 s   - legato slide
 S   - shift slide
 - natural harmonic
[n]  - artificial harmonic
n(n) - tapped harmonic
 ~   - vibrato
 tr  - trill
 T   - tap
 TP  - trem. picking
 PM  - palm muting
\n/  - tremolo bar dip; n = amount to dip
 \n  - tremolo bar down
 n/  - tremolo bar up
/n\  - tremolo bar inverted dip
 =   - hold bend; also acts as connecting device for hammers/pulls
 <> - volume swell (louder/softer)
 x   - on rhythm slash represents muted slash
 o   - on rhythm slash represents single note slash

Misc Legend
-----------
 |  - bar
||  - double bar
||o - repeat start
o|| - repeat end
*|  - double bar (ending)
 :  - bar (freetime)
 $  - Segno
 &  - Coda
Tempo markers -  = BPM(8/16=s8/s16), where s8 = swing 8ths, s16 = swing 16ths


            
            
Suggest correction
Creating personal tab
Creating personal tab
You can edit any tab online and save it as your Personal.

You can edit, replace or remove any tab part or add personal notes – all changes will be seen only by you.

Personal tabs can be accessed anytime from any device, even offline.
Learn more »
Give kudos to tab author, rate the tab!
1 2 3 4 5
comments
print report bad tab
guest
You may want to rate the tab now too:
select rating
Wanna post a correction for this tab? Suggest correction