Oops, an error
Loading. Please wait.

End Of The Line tab

version 2
version 2

Whole song

Interactive

2,629 views 1 this week
no commentswrite comment
1 2 3 4 5
2 more votes to show rating
add to favorites
×
Save as Personal and add changes to this tab that will be seen only by you. Learn more ›
×
You can save this tab as Personal to edit and correct it or add notes. All changes will be seen only by you. Learn more »
launch autoscroll
font size
0
reset
how to read this tab
guitar tuner
edit
Autoscroll
slow
fast
+/-
esc
set tempo
stop
#----------------------------------PLEASE NOTE---------------------------------#
#This file is the author's own work and represents their interpretation of the #
#song. You may only use this file for private study, scholarship, or research. #
#------------------------------------------------------------------------------#

END OF THE LINE
As recorded by Arch Enemy
(From the 2003 Album ANTHEMS OF REBELLION)

Transcribed by Laurien Woodgate
        

Words by Michael Amott Music by Michael Amott, Christopher Amott
Arranged by Laurien Woodgate

Gtr I (C F Bb Eb G C) - 'Michael Amott'
Gtr II (C F Bb Eb G C) - 'Chirstopher Amott'
Gtr III (C F Bb Eb G C) - 'Michael Amott lead'

   Intro
    N.C.(Em)
   4/4
    Gtrs I, II
      PM--|   PM--|   PM----------|     PM--|   PM--|   PM----------|
    S S S S S S S S S S S S S S S S   S S S S S S S S S S S S S S S S
||----------------------------------|---------------------------------|
||o---------------------------------|---------------------------------|
||----------------------------------|---------------------------------|
||----------------------------------|---------------------------------|
||o-8-------7-------5---------------|-8-------7-------5---------------|
||----0-0-0---0-0-0---0-0-0-0-0-0-0-|---0-0-0---0-0-0---0-0-0-0-0-0-0-|


  N.C.(Em)                          C5    B5
    PM--|   PM--|   PM----------|
  S S S S S S S S S S S S S S S S    H    H
|---------------------------------|-------------||
|---------------------------------|------------o||
|---------------------------------|-------------||
|---------------------------------|-------------||
|-8-------7-------5---------------|-10----9----o||
|---0-0-0---0-0-0---0-0-0-0-0-0-0-|--8----7-----||


    N.C.(Am)
    S S E S S S S S S S E S E   S S E S S S S S S S S S S S S
||----------------------------|--------------------------------||
||o---------------------------|-------------------------------o||
||----------------------------|--------------------------------||
||--7p5h7---------7p5h7-8-8-8-|-7p5h7--------------------------||
||o-------0-0-0-0-------------|-------0-0-0-0---0-0-0---0-0-0-o||
||----------------------------|--------------------------------||


  Gtr I
   S S  E S S S S  S S  S  E  S  E    S S  E S S S S S S S S S S S S
|----------------------------------|---------------------------------|
|----------------------------------|---------------------------------|
|----------------------------------|---------------------------------|
|--7p5h=7----------7p5h=7--8--8--8-|--7p5h=7-------------------------|
|---------0-0-0-0------------------|---------0-0-0-0---0-0-0---0-0-0-|
|----------------------------------|---------------------------------|
|
| Gtr II
|  S S  E S S S S  S S  S  E  S  E    S S  E S S S S S S S S S S S S
|----------------------------------|---------------------------------|
|----------------------------------|---------------------------------|
|----------------------------------|---------------------------------|
|-10p9h10---------10p9h10-12-12-12-|-10p9h10-------------------------|
|---------0-0-0-0------------------|---------0-0-0-0---0-0-0---0-0-0-|
|----------------------------------|---------------------------------|


   S S  E S S S S  S S  S  E  S  E    S S  E  S  S  S  S S  S  S  S S  S  S  S
|----------------------------------|-------------------------------------------|
|----------------------------------|-------------------------------------------|
|----------------------------------|-------------------------------------------|
|--7p5h=7----------7p5h=7--8--8--8-|--7p5h=7--7--7--7--7----7--7--7----7--7--7-|
|---------0-0-0-0------------------|----------0--0--0--0----0--0--0----0--0--0-|
|----------------------------------|-------------------------------------------|
|
|  S S  E S S S S  S S  S  E  S  E    S S  E  S  S  S  S S  S  S  S S  S  S  S
|----------------------------------|-------------------------------------------|
|----------------------------------|-------------------------------------------|
|----------------------------------|-------------------------------------------|
|-10p9h10---------10p9h10-12-12-12-|-10p9h10-10-10-10-10---10-10-10---10-10-10-|
|---------0-0-0-0------------------|----------0--0--0--0----0--0--0----0--0--0-|
|----------------------------------|-------------------------------------------|


   Verse
    $
    N.C.(Em)
    Gtrs I, II
      PM--|   PM--|   PM----------|     PM--|   PM--|   PM----------|
    S S S S S S S S S S S S S S S S   S S S S S S S S S S S S S S S S
||----------------------------------|----------------------------------|
||o---------------------------------|----------------------------------|
||----------------------------------|----------------------------------|
||----------------------------------|----------------------------------|
||o-8-------7-------5---------------|-8-------7-------5----------------|
||----0-0-0---0-0-0---0-0-0-0-0-0-0-|---0-0-0---0-0-0---0-0-0-0-0-0-0--|


  N.C.(Em)                          C5    B5
    PM--|   PM--|   PM----------|
  S S S S S S S S S S S S S S S S    H    H
|---------------------------------|-------------||
|---------------------------------|------------o||
|---------------------------------|-------------||
|---------------------------------|-------------||
|-8-------7-------5---------------|-10----9----o||
|---0-0-0---0-0-0---0-0-0-0-0-0-0-|--8----7-----||


   Pre-Chorus
    N.C.(Am)
    S S E S S S S S S S E S E   S S E S S S S S S S S S S S S
||----------------------------|--------------------------------||
||o---------------------------|-------------------------------o||
||----------------------------|--------------------------------||
||--7p5h7---------7p5h7-8-8-8-|-7p5h7--------------------------||
||o-------0-0-0-0-------------|-------0-0-0-0---0-0-0---0-0-0-o||
||----------------------------|--------------------------------||


  Gtr I
   S S  E S S S S  S S  S  E  S  E    S S  E S S S S S S S S S S S S
|----------------------------------|---------------------------------|
|----------------------------------|---------------------------------|
|----------------------------------|---------------------------------|
|--7p5h=7----------7p5h=7--8--8--8-|--7p5h=7-------------------------|
|---------0-0-0-0------------------|---------0-0-0-0---0-0-0---0-0-0-|
|----------------------------------|---------------------------------|
|
| Gtr II
|  S S  E S S S S  S S  S  E  S  E    S S  E S S S S S S S S S S S S
|----------------------------------|---------------------------------|
|----------------------------------|---------------------------------|
|----------------------------------|---------------------------------|
|-10p9h10---------10p9h10-12-12-12-|-10p9h10-------------------------|
|---------0-0-0-0------------------|---------0-0-0-0---0-0-0---0-0-0-|
|----------------------------------|---------------------------------|


   S S  E S S S S  S S  S  E  S  E    S S  E  S  S  S  S S  S  S  S S  S  S  S
|----------------------------------|-------------------------------------------|
|----------------------------------|-------------------------------------------|
|----------------------------------|-------------------------------------------|
|--7p5h=7----------7p5h=7--8--8--8-|--7p5h=7--7--7--7--7----7--7--7----7--7--7-|
|---------0-0-0-0------------------|----------0--0--0--0----0--0--0----0--0--0-|
|----------------------------------|-------------------------------------------|
|
|  S S  E S S S S  S S  S  E  S  E    S S  E  S  S  S  S S  S  S  S S  S  S  S
|----------------------------------|-------------------------------------------|
|----------------------------------|-------------------------------------------|
|----------------------------------|-------------------------------------------|
|-10p9h10---------10p9h10-12-12-12-|-10p9h10-10-10-10-10---10-10-10---10-10-10-|
|---------0-0-0-0------------------|----------0--0--0--0----0--0--0----0--0--0-|
|----------------------------------|-------------------------------------------|


   Chorus
                                                     To Coda
    Em                            A5/E          D
    S S S S E S S S S E S S S S   S S S S E S S S S S S E S S  3x
||------------------------------|------------------------------||
||o-----------------------------|-----------------------------o||
||------------------------------|------------------------------||
||--2-2-2-2---2-2-2-2---2-2-2-2-|-2-2-2-2---2-2-0-0-0-0---0-0--||
||o-----------------------------|-----------------------------o||
||------------------------------|------------------------------||
|
|   S S S S E S S S S E S S S S   S S S S E S S S S S S E S S  3x
||------------------------------|------------------------------||
||o-----------------------------|-----------------------------o||
||------------------------------|------------------------------||
||--5-5-5-5---5-5-5-5---5-5-5-5-|-7-7-7-7---7-7-4-4-4-4---4-4--||
||o-----------------------------|-----------------------------o||
||------------------------------|------------------------------||


  Em                            A5/E          D       F#sus4
  S S S S E S S S S E S S S S   S S S S E S S S S S S  Q
|-----------------------------|-----------------------------|
|-----------------------------|-----------------------------|
|-----------------------------|-----------------------------|
|-2-2-2-2---2-2-2-2---2-2-2-2-|-2-2-2-2---2-2-0-0-0-0-------|
|-----------------------------|-----------------------14\---|
|-----------------------------|-----------------------14\---|
|
| S S S S E S S S S E S S S S   S S S S E S S S S S S  Q
|-----------------------------|-----------------------------|
|-----------------------------|-----------------------------|
|-----------------------------|-----------------------------|
|-5-5-5-5---5-5-5-5---5-5-5-5-|-7-7-7-7---7-7-4-4-4-4-------|
|-----------------------------|-----------------------14\---|
|-----------------------------|-----------------------14\---|


 Pre-Verse
  N.C.(Em)
  Gtrs I, II
    PM--|   PM--|   PM----------|     PM--|   PM--|   PM----------|
  S S S S S S S S S S S S S S S S   S S S S S S S S S S S S S S S S
|---------------------------------|---------------------------------|
|---------------------------------|---------------------------------|
|---------------------------------|---------------------------------|
|---------------------------------|---------------------------------|
|-8-------7-------5---------------|-8-------7-------5---------------|
|---0-0-0---0-0-0---0-0-0-0-0-0-0-|---0-0-0---0-0-0---0-0-0-0-0-0-0-|


                                D.S. al Coda
  N.C.(Em)                          C5    B5
    PM--|   PM--|   PM----------|
  S S S S S S S S S S S S S S S S    H    H
|---------------------------------|------------|
|---------------------------------|------------|
|---------------------------------|------------|
|---------------------------------|------------|
|-8-------7-------5---------------|-10----9----|
|---0-0-0---0-0-0---0-0-0-0-0-0-0-|--8----7----|


 Chorus
  &
  Em                            A5/E          D
  Gtr I
  S S S S E S S S S E S S S S   S S S S E S S S S S S E S S
|-----------------------------|-----------------------------|
|-----------------------------|-----------------------------|
|-----------------------------|-----------------------------|
|-2-2-2-2---2-2-2-2---2-2-2-2-|-2-2-2-2---2-2-0-0-0-0---0-0-|
|-----------------------------|-----------------------------|
|-----------------------------|-----------------------------|
|
| Gtr II
| S S S S E S S S S E S S S S   S S S S E S S S S S S E S S
|-----------------------------|-----------------------------|
|-----------------------------|-----------------------------|
|-----------------------------|-----------------------------|
|-5-5-5-5---5-5-5-5---5-5-5-5-|-7-7-7-7---7-7-4-4-4-4---4-4-|
|-----------------------------|-----------------------------|
|-----------------------------|-----------------------------|


  Dm/F                          G5/D          C
  S S S S E S S S S E S S S S   S S S S E S S S S S S E S S
|-----------------------------|-----------------------------|
|-----------------------------|-----------------------------|
|-----------------------------|-----------------------------|
|-0-0-0-0---0-0-0-0---0-0-0-0-|-0-0-0-0---0-0---------------|
|-----------------------------|---------------3-3-3-3---3-3-|
|-----------------------------|-----------------------------|
|
| S S S S E S S S S E S S S S   S S S S E S S S S S S E S S
|-----------------------------|-----------------------------|
|-----------------------------|-----------------------------|
|-----------------------------|-----------------------------|
|-3-3-3-3---3-3-3-3---3-3-3-3-|-5-5-5-5---5-5-2-2-2-2---2-2-|
|-----------------------------|-----------------------------|
|-----------------------------|-----------------------------|


  Dm                            G5            D5/A    F#sus4
  S S S S E S S S S E S S S S   S S S S E S S S S S S  Q
|-----------------------------|-----------------------------|
|-----------------------------|-----------------------------|
|-----------------------------|-----------------------------|
|-0-0-0-0---0-0-0-0---0-0-0-0-|-0-0-0-0---0-0-0-0-0-0-------|
|-----------------------------|-----------------------14\---|
|-----------------------------|-----------------------14\---|
|
| S S S S E S S S S E S S S S   S S S S E S S S S S S  Q
|-----------------------------|-----------------------------|
|-----------------------------|-----------------------------|
|-----------------------------|-----------------------------|
|-3-3-3-3---3-3-3-3---3-3-3-3-|-5-5-5-5---5-5-7-7-7-7-------|
|-----------------------------|-----------------------14\---|
|-----------------------------|-----------------------14\---|


   Pre-Solo
    N.C.(Em)
    Gtrs I, II
      PM--|   PM--|   PM----------|     PM--|   PM--|   PM----------|
    S S S S S S S S S S S S S S S S   S S S S S S S S S S S S S S S S
||----------------------------------|----------------------------------|
||o---------------------------------|----------------------------------|
||----------------------------------|----------------------------------|
||----------------------------------|----------------------------------|
||o-8-------7-------5---------------|-8-------7-------5----------------|
||----0-0-0---0-0-0---0-0-0-0-0-0-0-|---0-0-0---0-0-0---0-0-0-0-0-0-0--|


  N.C.(Em)                          C5    B5
    PM--|   PM--|   PM----------|
  S S S S S S S S S S S S S S S S    H    H
|---------------------------------|-------------||
|---------------------------------|------------o||
|---------------------------------|-------------||
|---------------------------------|-------------||
|-8-------7-------5---------------|-10----9----o||
|---0-0-0---0-0-0---0-0-0-0-0-0-0-|--8----7-----||


 Guitar Solo
  N.C.(Em)
        PM---------|          PM---------|          PM-------------------------------|
   S    S     S    S     S    S     S    S     S    S     S    S     S    S     S    S
|------------------------------------------------------------------------------------------|
|------------------------------------------------------------------------------------------|
|------------------------------------------------------------------------------------------|
|------------------------------------------------------------------------------------------|
|--8---------------------7---------------------5-------------------------------------------|
|-------0-----0----0----------0-----0----0----------0-----0----0-----0----0-----0----0-----|
|
| Gtr III
|  |---3---|  |---3---|  |---3---|  |---3---|  |---3---|  |---3---|  |---3---|  |---3---|
|  S  S    S  S  S    S  S  S    S  S  S    S  S  S    S  S  S    S  S  S    S  S  S    S
|------------------------------------------------------------------------------------------|
|-11-12---15-12-11---12-15-12---11-12-15---12-11-12---15-12-11---12-15-12---11-12-15---12--|
|------------------------------------------------------------------------------------------|
|------------------------------------------------------------------------------------------|
|------------------------------------------------------------------------------------------|
|------------------------------------------------------------------------------------------|


  N.C.(Em)
        PM---------|          PM---------|          PM-------------------------------|
   S    S     S    S     S    S     S    S     S    S     S    S     S    S     S    S
|------------------------------------------------------------------------------------------|
|------------------------------------------------------------------------------------------|
|------------------------------------------------------------------------------------------|
|------------------------------------------------------------------------------------------|
|--8---------------------7---------------------5-------------------------------------------|
|-------0-----0----0----------0-----0----0----------0-----0----0-----0----0-----0----0-----|
|
|  |---3---|  |---3---|  |---3---|  |---3---|  |---3---|  |---3---|  |---3---|  |---3---|
|  S  S    S  S  S    S  S  S    S  S  S    S  S  S    S  S  S    S  S  S    S  S  S    S
|------------------------------------------------------------------------------------------|
|-15-12---11-12-15---12-11-12---15-12-11---12-15-12---11-12-15---12-11-12---15-12-11---12--|
|------------------------------------------------------------------------------------------|
|------------------------------------------------------------------------------------------|
|------------------------------------------------------------------------------------------|
|------------------------------------------------------------------------------------------|


  N.C.(Em)
        PM---------|          PM---------|          PM-------------------------------|
   S    S     S    S     S    S     S    S     S    S     S    S     S    S     S    S
|------------------------------------------------------------------------------------------|
|------------------------------------------------------------------------------------------|
|------------------------------------------------------------------------------------------|
|------------------------------------------------------------------------------------------|
|--8---------------------7---------------------5-------------------------------------------|
|-------0-----0----0----------0-----0----0----------0-----0----0-----0----0-----0----0-----|
|
|  |---3---|  |---3---|  |---3---|  |---3---|  |---3---|  |---3---|  |---3---|  |---3---|
|  S  S    S  S  S    S  S  S    S  S  S    S  S  S    S  S  S    S  S  S    S  S  S    S
|------------------------------------------------------------------------------------------|
|-11-12---15-12-11---12-15-12---11-12-15---12-11-12---15-12-11---12-15-12---11-12-15---12--|
|------------------------------------------------------------------------------------------|
|------------------------------------------------------------------------------------------|
|------------------------------------------------------------------------------------------|
|------------------------------------------------------------------------------------------|


  C5                 B5                 A5
    H                 H                  W
|-------------------------------------|---------------------------|
|-------------------------------------|---------------------------|
|-------------------------------------|---------------------------|
|-------------------------------------|---------------------------|
|--10-----------------9---------------|--7------------------------|
|---8-----------------7---------------|--5------------------------|
|
|   |--3--|  |--3--|          |--3--|           |----3-----|
|   E  E  E  E  E  E  Q.      S  S  S    H     +Q   Q     +Q
|-----------15-17-19-20b22---19h22p19-|-17----(17)-17b19r(17)b19r=|
|-/15-17-19---------------------------|---------------------------|
|-------------------------------------|---------------------------|
|-------------------------------------|---------------------------|
|-------------------------------------|---------------------------|
|-------------------------------------|---------------------------|


   +W
|---------------------------------------|
|---------------------------------------|
|---------------------------------------|
|---------------------------------------|
|--(7)----------------------------------|
|--(5)----------------------------------|
|
|   |-------3-------|        |--3--|
|  +Q      +Q      +Q       +H    +Q
|-(17)b19r(17)b19r(17)b21==(17)r=(17)---|
|---------------------------------------|
|---------------------------------------|
|---------------------------------------|
|---------------------------------------|
|---------------------------------------|


 Out-Chorus
  N.C.
  Gtr I
  S S S S E S S S S E S S S S   S S S S E S S S S S S E S S
|-----------------------------|-----------------------------|
|-----------------------------|-----------------------------|
|-----------------------------|-----------------------------|
|-2-2-2-2---2-2-2-2---2-2-2-2-|-2-2-2-2---2-2-0-0-0-0---0-0-|
|-----------------------------|-----------------------------|
|-----------------------------|-----------------------------|


    Em                            A5/E          D
    Gtr I
    S S S S E S S S S E S S S S   S S S S E S S S S S S E S S  3x
||------------------------------|------------------------------||
||o-----------------------------|-----------------------------o||
||------------------------------|------------------------------||
||--2-2-2-2---2-2-2-2---2-2-2-2-|-2-2-2-2---2-2-0-0-0-0---0-0--||
||o-----------------------------|-----------------------------o||
||------------------------------|------------------------------||
|
|   Gtr II
|   S S S S E S S S S E S S S S   S S S S E S S S S S S E S S  3x
||------------------------------|------------------------------||
||o-----------------------------|-----------------------------o||
||------------------------------|------------------------------||
||--5-5-5-5---5-5-5-5---5-5-5-5-|-7-7-7-7---7-7-4-4-4-4---4-4--||
||o-----------------------------|-----------------------------o||
||------------------------------|------------------------------||


    Dm/F                          G5/D          C
    S S S S E S S S S E S S S S   S S S S E S S S S S S E S S
||------------------------------|-----------------------------|
||o-----------------------------|-----------------------------|
||------------------------------|-----------------------------|
||--0-0-0-0---0-0-0-0---0-0-0-0-|-0-0-0-0---0-0---------------|
||o-----------------------------|---------------3-3-3-3---3-3-|
||------------------------------|-----------------------------|
|
|   S S S S E S S S S E S S S S   S S S S E S S S S S S E S S
||------------------------------|-----------------------------|
||o-----------------------------|-----------------------------|
||------------------------------|-----------------------------|
||--3-3-3-3---3-3-3-3---3-3-3-3-|-5-5-5-5---5-5-2-2-2-2---2-2-|
||o-----------------------------|-----------------------------|
||------------------------------|-----------------------------|


                                1.
  Dm                            G5/D          D5
  S S S S E S S S S E S S S S   S S S S E S S S S S S E S S
|-----------------------------|------------------------------||
|-----------------------------|-----------------------------o||
|-----------------------------|------------------------------||
|-0-0-0-0---0-0-0-0---0-0-0-0-|-0-0-0-0---0-0-0-0-0-0---0-0--||
|-----------------------------|-----------------------------o||
|-----------------------------|------------------------------||
|
| S S S S E S S S S E S S S S   S S S S E S S S S S S E S S
|-----------------------------|------------------------------||
|-----------------------------|-----------------------------o||
|-----------------------------|------------------------------||
|-3-3-3-3---3-3-3-3---3-3-3-3-|-5-5-5-5---5-5-7-7-7-7---7-7--||
|-----------------------------|-----------------------------o||
|-----------------------------|------------------------------||


  2.                H.=H        Q=80
  G5/D          C               E5
  S S S S E S S S S S S E S S   W          +W
|-----------------------------|----------|--------*|
|-----------------------------|----------|--------*|
|-----------------------------|----------|--------*|
|-0-0-0-0---0-0---------------|-2--------|-(2)----*|
|---------------3-3-3-3---3-3-|-2--------|-(2)----*|
|-----------------------------|-0--------|-(0)----*|
|
| S S S S E S S S S S S E S S   W          +W
|-----------------------------|----------|--------*|
|-----------------------------|----------|--------*|
|-----------------------------|----------|--------*|
|-5-5-5-5---5-5-2-2-2-2---2-2-|-2--------|-(2)----*|
|-----------------------------|-2--------|-(2)----*|
|-----------------------------|-0--------|-(0)----*|



Duration Legend
---------------
W - whole; H - half; Q - quarter; E - 8th; S - 16th; T - 32nd; X - 64th; a - acciaccatura
+ - note tied to previous; . - note dotted; .. - note double dotted
Uncapitalized letters represent notes that are staccato (1/2 duration)
Irregular groupings are notated above the duration line
Duration letters will always appear directly above the note/fret number it represents the
duration for.  Duration letters with no fret number below them represent rests.  Multi-
bar rests are notated in the form Wxn, where n is the number of bars to rest for.  Low
melody durations appear below the staff

Tablature Legend
----------------
 h   - hammer-on
 p   - pull-off
 b   - bend
 pb  - pre-bend
 r   - bend release (if no number after the r, then release immediately)
 /\  - slide into or out of (from/to "nowhere")
 s   - legato slide
 S   - shift slide
 - natural harmonic
[n]  - artificial harmonic
n(n) - tapped harmonic
 ~   - vibrato
 tr  - trill
 T   - tap
 TP  - trem. picking
 PM  - palm muting
\n/  - tremolo bar dip; n = amount to dip
 \n  - tremolo bar down
 n/  - tremolo bar up
/n\  - tremolo bar inverted dip
 =   - hold bend; also acts as connecting device for hammers/pulls
 <> - volume swell (louder/softer)
 x   - on rhythm slash represents muted slash
 o   - on rhythm slash represents single note slash

Misc Legend
-----------
 |  - bar
||  - double bar
||o - repeat start
o|| - repeat end
*|  - double bar (ending)
 :  - bar (freetime)
 $  - Segno
 &  - Coda
Tempo markers -  = BPM(8/16=s8/s16), where s8 = swing 8ths, s16 = swing 16ths


            
            
Suggest correction
Creating personal tab
Creating personal tab
You can edit any tab online and save it as your Personal.

You can edit, replace or remove any tab part or add personal notes – all changes will be seen only by you.

Personal tabs can be accessed anytime from any device, even offline.
Learn more »
Give kudos to tab author, rate the tab!
1 2 3 4 5
comments
print report bad tab
guest
You may want to rate the tab now too:
select rating
Wanna post a correction for this tab? Suggest correction