Oops, an error
Loading. Please wait.

I Am Legend Out For Blood tab

version 2
version 2

Whole song

Interactive

2,223 views 1 this week
1 commentread comment
1 2 3 4 5
2 more votes to show rating
add to favorites
×
Save as Personal and add changes to this tab that will be seen only by you. Learn more ›
×
You can save this tab as Personal to edit and correct it or add notes. All changes will be seen only by you. Learn more »
launch autoscroll
font size
0
reset
how to read this tab
guitar tuner
backing track
0:00
0:00
edit
Autoscroll
slow
fast
+/-
esc
set tempo
stop
Author
Difficulty
intermediate
This tab is copied from a young mans performance on youtube, people where asking
for the tab so here it is.
   Tune each string down 2 whole steps.

---------------------------------------------------------------------|
---------------------------------------------------------------------|
---------------------------------------------------------------------| repeat
-----------5-7-8-----10-8-7-------8-10-12-10-8h10p8s7-8-7-5----------| 6
-----0-000-----0-000--------0-000------------------------------------| times
---------------------------------------------------------------------|

----------------------------------------------------------------------|
----------------------------------------------------------------------|
-----9-----7-9-10-8----7----------------------------------------------|
-----7-----5-7-8--6----5----------------------------------------------|
----------------------------------------------------------------------|
----------------------------------------------------------------------|

---------------------------------------------------------------------|
---------------------------------------------------------------------|
---------------------------------------------------------------------|
-----7-----7-----7-----5-7-8-6-----6-----5-----5---------------------|
-------000---000---000---------000---000---000-----------------------|
---------------------------------------------------------------------|

----------------------------------------------------------------------|
----------------------------------------------------------------------|
-----9-----7-9-10-8----7----------------------------------------------|
-----7-----5-7-8--6----5----------------------------------------------|
----------------------------------------------------------------------|
----------------------------------------------------------------------|

---------------------------------------------------------------------|
---------------------------------------------------------------------|
---------------------------------------------------------------------|
-----7-----7-----7-----5-7-8-6-----6-----5-----///-------------------|
-------000---000---000---------000---000---000-///-------------------|
-----------------------------------------------///-------------------|

---------------------------------------------------------------------|
---------------------------------------------------------------------|
---------------------------------------------------------------------| repeat
-----------5-7-8-----10-8-7-------8-10-12-10-8h10p8s7-8-7-5----------| twice
-----0-000-----0-000--------0-000------------------------------------|
---------------------------------------------------------------------|

----------------------------------------------------------------------------|when the
----------------------------------------------------------------------------|song gets
----------------------------------------------------------------------------|spacey
-----------5-7-8-----10-8-7-------8-10-12-10-8h10p8s7-8-7-5-----------------|dont use
-----0-000-----0-000--------0-000-------------------------------| palm mute 4
----------------------------------------------------------------|  its effect     X2

----------------------------------------------------------------------|
----------------------------------------------------------------------|
-----9-----7-9-10-8----7----------------------------------------------|
-----7-----5-7-8--6----5----------------------------------------------|
----------------------------------------------------------------------|
----------------------------------------------------------------------|

Verse:  This part feels weird so just continuously pick downwards(or whatever)

---------------------------------------------------------------------|
---------------------------------------------------------------------|Repeat
---------------------------------------------------------------------|3 times
-----------4---5---3---2---------------------------------------------|
-------------------------------5---6---3---4-------------------------|
-----2-2-2---2---2---2---0-0-0---0---0---0---------------------------|

---------------------------------------------------------------------|
---------------------------------------------------------------------|
---------------------------------------------------------------------|THEN
-----------4---5---3---2---------------------------------------------|
-------------------------------5---6---3-----------------------------|
-----2-2-2---2---2---2---0-0-0---0---0---0---------------------------|

---------------------------------------------------------------------|
---------------------------------------------------------------------|Palm
-------------7-7-----9-9-----11-11-----------------------------------|Mute
-----4-4-----7-7-----9-9-----11-11-----------------------------------|Single
-----4-4-----5-5--55-7-7--77-9 -9 -----------------------------------|Notes
-----2-2--22---------------------------------------------------------|

---------------------------------------------------------------------|
---------------------------------------------------------------------|Repeat
---------------------------------------------------------------------|3 times
-----------4---5---3---2---------------------------------------------|
-------------------------------5---6---3---4-------------------------|
-----2-2-2---2---2---2---0-0-0---0---0---0---------------------------|

---------------------------------------------------------------------|
---------------------------------------------------------------------|
---------------------------------------------------------------------|THEN
-----------4---5---3---2---------------------------------------------|
-------------------------------5---6---3-----------------------------|
-----2-2-2---2---2---2---0-0-0---0---0---0---------------------------|

-----------------------20-20------------------------------------------|Im unsure
---------------17-17---19-19---17-17-///------------------------------|about these
---------------18-18---17-17---18-18-///------------------------------|higher chords
-----4-4--x-x--17-17-----------17-17-///------------------------------|
-----4-4--x-x---------------------------------------------------------|
-----2-2--x-x---------------------------------------------------------|

---------------------------------------------------------------------------|
---------------------------------------------------------------------------|
---------------------------------------------------------------------------|
-----7-(7)---7---8---5-7-(7)---7---8---5-7-(7)---7---8---5---7---3---5---2-|
-----------0---0---0---------0---0---0---------0---0---0---0---0---0---0---|
---------------------------------------------------------------------------|

---------------------------------------------------------|
---------------------------------------------------------|
---------------------------------------------------------|
-----11-(11)---11---12---9-11-(11)---11---12---9-11-(11)-|
-------------0----0----0-----------0----0----0-----------|
---------------------------------------------------------|

---------------------------------------------|
---------------------------------------------|
---------------------------------------------|
-------11---12---9---11---7---9---5----------|         Repeat below twice then
-----0----0----0---0----0---0---0------------|         return to verse.
---------------------------------------------|

---------------------------------------------------------------------------|
---------------------------------------------------------------------------|
---------------------------------------------------------------------------|
-----7-(7)---7---8---5-7-(7)---7---8---5-7-(7)---7---8---5---7---3---5---2-|
-----------0---0---0---------0---0---0---------0---0---0---0---0---0---0---|
---------------------------------------------------------------------------|


---------------------------------------------------------------------|
---------------------------------------------------------------------|Repeat
---------------------------------------------------------------------|3 times
-----------4---5---3---2---------------------------------------------|
-------------------------------5---6---3---4-------------------------|
-----2-2-2---2---2---2---0-0-0---0---0---0---------------------------|

---------------------------------------------------------------------|
---------------------------------------------------------------------|
---------------------------------------------------------------------|THEN
-----------4---5---3---2---------------------------------------------|
-------------------------------5---6---3-----------------------------|
-----2-2-2---2---2---2---0-0-0---0---0---0---------------------------|

---------------------------------------------------------------------|
---------------------------------------------------------------------|Palm
-------------7-7-----9-9-----11-11-----------------------------------|Mute
-----4-4-----7-7-----9-9-----11-11-----------------------------------|Single
-----4-4-----5-5--55-7-7--77-9 -9 -----------------------------------|Notes
-----2-2--22---------------------------------------------------------|

---------------------------------------------------------------------|
---------------------------------------------------------------------|Repeat
---------------------------------------------------------------------|3 times
-----------4---5---3---2---------------------------------------------|
-------------------------------5---6---3---4-------------------------|
-----2-2-2---2---2---2---0-0-0---0---0---0---------------------------|

---------------------------------------------------------------------|
---------------------------------------------------------------------|
---------------------------------------------------------------------|THEN
-----------4---5---3---2---------------------------------------------|
-------------------------------5---6---3-----------------------------|
-----2-2-2---2---2---2---0-0-0---0---0---0---------------------------|

-----------------------20-20------------------------------------------|Im unsure
---------------17-17---19-19---17-17-///------------------------------|about these
---------------18-18---17-17---18-18-///------------------------------|higher chords
-----4-4--x-x--17-17-----------17-17-///------------------------------|
-----4-4--x-x---------------------------------------------------------|
-----2-2--x-x---------------------------------------------------------|

---------------------------------------------------------------------------|
---------------------------------------------------------------------------|
---------------------------------------------------------------------------|
-----7-(7)---7---8---5-7-(7)---7---8---5-7-(7)---7---8---5---7---3---5---2-|
-----------0---0---0---------0---0---0---------0---0---0---0---0---0---0---|
---------------------------------------------------------------------------|

---------------------------------------------------------|
---------------------------------------------------------|
---------------------------------------------------------|
-----11-(11)---11---12---9-11-(11)---11---12---9-11-(11)-|
-------------0----0----0-----------0----0----0-----------|
---------------------------------------------------------|

---------------------------------------------|
---------------------------------------------|
---------------------------------------------|
-------11---12---9---11---7---9---5----------|         Repeat below Twice before
-----0----0----0---0----0---0---0------------|         continuing.
---------------------------------------------|

---------------------------------------------------------------------------|
---------------------------------------------------------------------------|
---------------------------------------------------------------------------|
-----7-(7)---7---8---5-7-(7)---7---8---5-7-(7)---7---8---5---7---3---5---2-|
-----------0---0---0---------0---0---0---------0---0---0---0---0---0---0---|
---------------------------------------------------------------------------|

-----------------------------------|
-----------------------------------|   Repeat this part starting with palm
-----------------------------------|   mute first time round, but not second.
------------------------------5-4--|   I can't remember how many times so
-----2-3--2-3-6-5----2-3--2-3-3-2--|   have to use the song if you have it.
-----0-1--0-1-4-3----0-1--0-1------|   I also dont know when to bring this next
 part in exactly(the part below), but its right, use the song.

-------------------------|
-------------------------|
-------------------------|
-----7-6-7-9-10-9-10-12--|
-----7-6-7-9-10-9-10-12--|
-----5-4-5-7-8 -7-8 -10--|

-----------5-7-8-------5-7-8-------5-7-8-------5-7-8-|
-----5-7-8-------5-7-8-------5-7-8-------5-7-8-------|
-----------------------------------------------------|
-----------------------------------------------------|
-----------------------------------------------------|
-----------------------------------------------------|

-----------7-8-9-------7-8-9-------7-8-9-------7-8-9-|
-----7-8-9-------7-8-9-------7-8-9-------7-8-9-------|
-----------------------------------------------------|
-----------------------------------------------------|
-----------------------------------------------------|
-----------------------------------------------------|

-------------8-10-12---------8-10-12---------8-10-12---------8-10-12-|
-----8-10-12---------8-10-12---------8-10-12---------8-10-12---------|
---------------------------------------------------------------------|
---------------------------------------------------------------------|
---------------------------------------------------------------------|
---------------------------------------------------------------------|

-------------8-10-12---------8-10-12-------7-8-9-------7-8-9-|
-----8-10-12---------8-10-12---------7-8-9-------7-8-9-------|
-------------------------------------------------------------|
-------------------------------------------------------------|
-------------------------------------------------------------|
-------------------------------------------------------------|

-----------5-7-8-------5-7-8-------5-7-8-------5-7-8-|
-----5-7-8-------5-7-8-------5-7-8-------5-7-8-------|
-----------------------------------------------------|
-----------------------------------------------------|
-----------------------------------------------------|
-----------------------------------------------------|

-----------7-8-9-------7-8-9-------7-8-9-------7-8-9-|
-----7-8-9-------7-8-9-------7-8-9-------7-8-9-------|
-----------------------------------------------------|
-----------------------------------------------------|
-----------------------------------------------------|
-----------------------------------------------------|

-------------8-10-12---------8-10-12---------8-10-12---------8-10-12-|
-----8-10-12---------8-10-12---------8-10-12---------8-10-12---------|
---------------------------------------------------------------------|
---------------------------------------------------------------------|
---------------------------------------------------------------------|
---------------------------------------------------------------------|

-------------8-10-12---------8-10-12-------7-8-9-------7-8-9-|
-----8-10-12---------8-10-12---------7-8-9-------7-8-9-------|
-------------------------------------------------------------|
-------------------------------------------------------------|
-------------------------------------------------------------|
-------------------------------------------------------------|

------------------------------------------------7h8p7----7-8-10-|
---------------------------------7h8p7---7-8-10-------10--------|
-------------------4h5p4---4-5-7-------9------------------------|
-----4h5p4---4-5-7-------7--------------------------------------|
-----------7----------------------------------------------------|
----------------------------------------------------------------|

-----12p0-0-10p0-0-8p0-0-7p0-0-10-8-7--------------------|
--------------------------------------10-8-7-------------|   Repeat this
---------------------------------------------9-7-5-------|   section three
---------------------------------------------------9-7-5-|   times...
---------------------------------------------------------|
---------------------------------------------------------|

-----12p0-0-10p0-0-8p0-0-7p0-0-|
-------------------------------|
-------------------------------|
-------------------------------|
-------------------------------|
-------------------------------|

-----10-8-7----------------------------------------------|
------------10-8-7---------------------------------------|If you cant pick
--------------------9-7-5-------9-7-5--------------------|all of this, use
--------------------------9-7-5-------9-7-5--------------|pulloffs.
--------------------------------------------9-7-5--------|
--------------------------------------------------9-7-5--|

Thats almost all of it it, listen to the song and you'll finish it no problem.

            
            
Suggest correction
Creating personal tab
Creating personal tab
You can edit any tab online and save it as your Personal.

You can edit, replace or remove any tab part or add personal notes – all changes will be seen only by you.

Personal tabs can be accessed anytime from any device, even offline.
Learn more »
Give kudos to tab author, rate the tab!
1 2 3 4 5
comments
print report bad tab
1 comment total.
0 reply
jimpachi00 47 Mar 17, 2010 06:49 PM

good work =) nothing left to say

guest
You may want to rate the tab now too:
select rating
Wanna post a correction for this tab? Suggest correction