Oops, an error
Loading. Please wait.

Rise Of The Tyrant bass

version 1
version 1

Whole song

Interactive

887 views 1 this week
no commentswrite comment
1 2 3 4 5
3 more votes to show rating
add to favorites
×
Save as Personal and add changes to this tab that will be seen only by you. Learn more ›
×
You can save this tab as Personal to edit and correct it or add notes. All changes will be seen only by you. Learn more »
launch autoscroll
font size
0
reset
guitar tuner
edit
Autoscroll
slow
fast
+/-
esc
set tempo
stop
Rise Of The Tyrant
Arch Enemy

Transcribed by Seth "Shadows" Sanders {Livetolieanotherday@hotmail.com}

Gtr I (C F Bb Eb) - 'Bass'

  Q=205
 4/4
  Gtr I

  W          W          W          H    Q  E S S
|----------|----------|----------|----------------|
|----------|----------|----------|----------------|
|----------|----------|----------|----------------|
|----------|----------|----------|-----------2-2--|

dun dun dun dah dun, dun dun DAH DAH, dun dun dun Dah dun, DAH DAH, Dah dah
 5/4
  E E E E E E E E E E   E E E E E E E E E E   E E E E E E E E E E
|---------------------|---------------------|---------------------|
|---------------------|---------------------|---------------------|
|---------------------|---------------------|---------------------|
|-2-2-2-2-2-2-2-2-3-3-|-2-2-2-2-2-2-2-2-1-1-|-2-2-2-2-2-2-2-2-3-3-|


  E E E E E E E E E E   H    Q  Q  Q    E E E E E E E E E E
|---------------------|---------------|---------------------|
|---------------------|---------------|---------------------|
|---------------------|---------------|---------------------|
|-2-2-2-2-2-2-2-2-2-2-|-2-------------|-2-2-2-2-2-2-2-2-3-3-|


  E E E E E E E E E E   E E E E E E E E E E
|---------------------|---------------------|
|---------------------|---------------------|
|---------------------|---------------------|
|-2-2-2-2-2-2-2-2-1-1-|-2-2-2-2-2-2-2-2-3-3-|


                       3/4
  E E E E E E E E E E   E E E E E E
|---------------------|--------------|
|---------------------|--------------|
|-------------0-0-0-1-|-1-1-0-0------|
|-2-2-2-3-3-3---------|---------3-3--|


 5/4
  E E E E E E E E E E   E E E E E E E E E E   E E E E E E E E E E
|---------------------|---------------------|---------------------|
|---------------------|---------------------|---------------------|
|---------------------|---------------------|---------------------|
|-2-2-2-2-2-2-2-2-3-3-|-2-2-2-2-2-2-2-2-1-1-|-2-2-2-2-2-2-2-2-3-3-|


                       3/4           4/4               5/4
  E E E E E E E E E E   E E E E E E   E E E E E E E E   E E E E E E E E E E
|---------------------|-------------|-----------------|----------------------|
|---------------------|-------------|-----------------|----------------------|
|-------------0-0-0-1-|-1-1-0-0-----|-----------------|----------------------|
|-2-2-2-3-3-3---------|---------3-3-|-3---3---3---3---|-2-2-2-2-2-2-2-2-3-3--|


  E E E E E E E E E E   E E E E E E E E E E
|---------------------|---------------------|
|---------------------|---------------------|
|---------------------|---------------------|
|-2-2-2-2-2-2-2-2-1-1-|-2-2-2-2-2-2-2-2-3-3-|


                       3/4
  E E E E E E E E E E   E E E E E E
|---------------------|--------------|
|---------------------|--------------|
|-------------0-0-0-1-|-1-1-0-0------|
|-2-2-2-3-3-3---------|---------3-3--|


 5/4
  E E E E E E E E E E   E E E E E E E E E E   E E E E E E E E E E
|---------------------|---------------------|---------------------|
|---------------------|---------------------|---------------------|
|---------------------|---------------------|---------------------|
|-2-2-2-2-2-2-2-2-3-3-|-2-2-2-2-2-2-2-2-1-1-|-2-2-2-2-2-2-2-2-3-3-|


                       3/4                5/4
  E E E E E E E E E E   E E E E E E        E E E E E E E E E E
|---------------------|------------------|-----------------------|
|---------------------|------------------|-----------------------|
|-------------0-0-0-1-|-1-1-0-0----------|-----------------------|
|-2-2-2-3-3-3---------|---------3-3------|-2-2-2-2-2-2-2-2-3-3---|


  E E E E E E E E E E   E E E E E E E E E E
|---------------------|---------------------|
|---------------------|---------------------|
|---------------------|---------------------|
|-2-2-2-2-2-2-2-2-1-1-|-2-2-2-2-2-2-2-2-3-3-|


                       3/4
  E E E E E E E E E E   E E E E E E
|---------------------|--------------|
|---------------------|--------------|
|-------------0-0-0-1-|-1-1-0-0------|
|-2-2-2-3-3-3---------|---------3-3--|


 5/4
  E E E E E E E E E E   E E E E E E E E E E   E E E E E E E E E E
|---------------------|---------------------|---------------------|
|---------------------|---------------------|---------------------|
|---------------------|---------------------|---------------------|
|-2-2-2-2-2-2-2-2-3-3-|-2-2-2-2-2-2-2-2-1-1-|-2-2-2-2-2-2-2-2-3-3-|


                       3/4           4/4
  E E E E E E E E E E   E E E E E E   E E Q  Q  E E   Q  Q  E E E E
|---------------------|-------------|---------------|---------------|
|---------------------|-------------|---------------|---------------|
|-------------0-0-0-1-|-1-1-0-0-----|-----2--2------|-3--3----------|
|-2-2-2-3-3-3---------|---------3-3-|-0-0-------0-0-|-------0-0-0-0-|


  E E Q  Q  E E   Q  Q  E E E E   E E Q  Q  E E   Q  Q  E E E E
|---------------|---------------|---------------|---------------|
|---------------|---------------|---------------|---------------|
|-----5--5------|-7--7----------|---------------|---------------|
|-0-0-------0-0-|-------0-0-0-0-|-0-0-7--7--0-0-|-8--8--0-0-0-0-|


                   5/4                 3/4           5/4
  E E  Q   Q  E E    Q   Q  E E  H       Q   Q   Q     Q   Q   Q   Q   Q
|-----------------|-------------------|-------------|----------------------|
|-----------------|-------------------|-------------|----------------------|
|-----------------|-------------------|-------------|----------------------|
|-0-0-10--10--0-0-|-12--12--0-0-10----|-12--12--12--|-12--12--12--12--12---|


 3/4           5/4                   3/4        5/4
   Q   Q   Q     Q   Q   Q   Q   Q    Q  Q  Q    Q  Q  Q  Q  Q
|-------------|---------------------|----------|------------------|
|-------------|---------------------|----------|------------------|
|-------------|---------------------|----------|------------------|
|-12--12--12--|-12--12--12--12--12--|-8--8--8--|-8--8--8--8--8----|


 3/4           5/4
  Q.   E +Q      H.      Q  Q    E E E E E E E E E E   E E E E E E E E E E
|-------------|----------------|---------------------|---------------------|
|-------------|----------------|---------------------|---------------------|
|-6----8-(8)--|-10-------------|---------------------|---------------------|
|-------------|----------------|-2-2-2-2-2-2-2-2-3-3-|-2-2-2-2-2-2-2-2-1-1-|


  E E E E E E E E E E   E E E E E E E E E E
|---------------------|---------------------|
|---------------------|---------------------|
|---------------------|-------------0-0-0-1-|
|-2-2-2-2-2-2-2-2-3-3-|-2-2-2-3-3-3---------|


 3/4           5/4
  E E E E E E   E E E E E E E E E E
|-------------|---------------------|
|-------------|---------------------|
|-1-1-0-0-----|---------------------|
|---------3-3-|-2-2-2-2-2-2-2-2-3-3-|


  E E E E E E E E E E   E E E E E E E E E E
|---------------------|---------------------|
|---------------------|---------------------|
|---------------------|---------------------|
|-2-2-2-2-2-2-2-2-1-1-|-2-2-2-2-2-2-2-2-3-3-|


                       3/4
  E E E E E E E E E E   E E E E E E
|---------------------|--------------|
|---------------------|--------------|
|-------------0-0-0-1-|-1-1-0-0------|
|-2-2-2-3-3-3---------|---------3-3--|


  E E E E E E   E E E E E E   E E E E E E   E E E E E E   E E E E E E
|-------------|-------------|-------------|-------------|--------------|
|-------------|-------------|-------------|-------------|--------------|
|-------------|-------------|-------------|-------------|--------------|
|-2-2-2-2-2-2-|-2-2-3-3-2-2-|-2-2-2-2-2-2-|-1-1-2-2-2-2-|-2-2-2-2-3-3--|


                                     2/4           5/4
  S S E E S S E E   S S E E S S E E   S S E S S E   E E E E E E E E E E
|-----------------|-----------------|-------------|---------------------|
|-----------------|-----------------|-------------|---------------------|
|-----------------|-0-0-0-0-1-1-1-1-|-0-0-0-------|---------------------|
|-2-2-2-2-3-3-3-3-|-----------------|-------3-3-3-|-2-2-2-2-2-2-2-2-3-3-|


  E E E E E E E E E E   E E E E E E E E E E
|---------------------|---------------------|
|---------------------|---------------------|
|---------------------|---------------------|
|-2-2-2-2-2-2-2-2-1-1-|-2-2-2-2-2-2-2-2-3-3-|


                       3/4
  E E E E E E E E E E   E E E E E E
|---------------------|--------------|
|---------------------|--------------|
|-------------0-0-0-1-|-1-1-0-0------|
|-2-2-2-3-3-3---------|---------3-3--|


 4/4
  E E Q  Q  E E   Q  Q  E E E E   E E Q  Q  E E   Q  Q  E E E E
|---------------|---------------|---------------|----------------|
|---------------|---------------|---------------|----------------|
|-----2--2------|-3--3----------|-----5--5------|-7--7-----------|
|-0-0-------0-0-|-------0-0-0-0-|-0-0-------0-0-|-------0-0-0-0--|


                                                   5/4
  E E Q  Q  E E   Q  Q  E E E E   E E  Q   Q  E E    Q   Q  E E  H
|---------------|---------------|-----------------|-------------------|
|---------------|---------------|-----------------|-------------------|
|---------------|---------------|-----------------|-------------------|
|-0-0-7--7--0-0-|-8--8--0-0-0-0-|-0-0-10--10--0-0-|-12--12--0-0-10----|


 3/4           5/4                   3/4           5/4
   Q   Q   Q     Q   Q   Q   Q   Q     Q   Q   Q     Q   Q   Q   Q   Q
|-------------|---------------------|-------------|-----------------------|
|-------------|---------------------|-------------|-----------------------|
|-------------|---------------------|-------------|-----------------------|
|-12--12--12--|-12--12--12--12--12--|-12--12--12--|-12--12--12--12--12----|


 3/4        5/4              3/4           5/4
  Q  Q  Q    Q  Q  Q  Q  Q    Q.   E +Q      H.      Q  Q
|----------|----------------|-------------|------------------|
|----------|----------------|-------------|------------------|
|----------|----------------|-6----8-(8)--|-10---------------|
|-8--8--8--|-8--8--8--8--8--|-------------|------------------|


 3/4           5/4                   3/4           5/4
   Q   Q   Q     Q   Q   Q   Q   Q     Q   Q   Q     Q   Q   Q   Q   Q
|-------------|---------------------|-------------|-----------------------|
|-------------|---------------------|-------------|-----------------------|
|-------------|---------------------|-------------|-----------------------|
|-12--12--12--|-12--12--12--12--12--|-12--12--12--|-12--12--12--12--12----|


 3/4        5/4              3/4           5/4
  Q  Q  Q    Q  Q  Q  Q  Q    Q.   E +Q      H.      Q  Q
|----------|----------------|-------------|------------------|
|----------|----------------|-------------|------------------|
|----------|----------------|-6----8-(8)--|-10---------------|
|-8--8--8--|-8--8--8--8--8--|-------------|------------------|


  Q=187
 4/4                            3/4       4/4
  E E Q  S E. Q    Q  E E H      H.        E S S S S S S S S S S S S S S
|----------------|-------------|---------|-------------------------------|
|----------------|-------------|---------|-------------------------------|
|----------------|-------------|---------|-6-6-6-6-6-6-6-6-6-6-6-6-6-6-6-|
|-0--------4-----|------4------|-5-------|-------------------------------|


  S S S S S S S S S S S S S S S S   E S S S S S S S S S S S S S S
|---------------------------------|-------------------------------|
|-------------5-------------------|-------------------------------|
|-7-6-6-6-6-6---6-6-6-6-6-7-6-7-6-|-6-6-6-6-6-6-6-6-6-6-6-6-6-6-6-|
|---------------------------------|-------------------------------|


  S S S S S S S S S S S S S S S S   E S S S S S S S S S S S S S S
|---------------------------------|-------------------------------|
|-------------------------5---5---|-------------------------------|
|-7-6-6-6-6-6-7-6-6-6-6-6---6---6-|-5-5-5-5-5-5-5-5-5-5-5-5-5-5-5-|
|---------------------------------|-------------------------------|


  S S S S S S S S S S S S S S S S   E S S S S S S S S S S S S S S
|---------------------------------|-------------------------------|
|-------------3-------------------|-------------------------------|
|-6-5-5-5-5-5---5-5-5-5-5-6-5-6-5-|-5-5-5-5-5-5-5-5-5-5-5-5-5-5-5-|
|---------------------------------|-------------------------------|


  S S S S S S S S S S S S S S S S   E S S S S S S S S S S S S S S
|---------------------------------|-------------------------------|
|-------------------------3---3---|-------------------------------|
|-6-5-5-5-5-5-6-5-5-5-5-5---5---5-|-6-6-6-6-6-6-6-6-6-6-6-6-6-6-6-|
|---------------------------------|-------------------------------|


  S S S S S S S S S S S S S S S S   E S S S S S S S S S S S S S S
|---------------------------------|-------------------------------|
|-------------5-------------------|-------------------------------|
|-7-6-6-6-6-6---6-6-6-6-6-7-6-7-6-|-6-6-6-6-6-6-6-6-6-6-6-6-6-6-6-|
|---------------------------------|-------------------------------|


  S S S S S S S S S S S S S S S S   E S S S S S S S S S S S S S S
|---------------------------------|-------------------------------|
|-------------------------5---5---|-------------------------------|
|-7-6-6-6-6-6-7-6-6-6-6-6---6---6-|-5-5-5-5-5-5-5-5-5-5-5-5-5-5-5-|
|---------------------------------|-------------------------------|


                                               3/4
  S S S S S S S S S S S S S S S S   H    H      Q..   S +Q
|---------------------------------|-----------|--------------|
|-------------3-------------------|-----------|--------------|
|-6-5-5-5-5-5---5-5-5-5-5-6-5-6-5-|-4----3----|-0-----4-(4)--|
|---------------------------------|-----------|--------------|


  Q=205
 4/4
  E E E E E E E E   E E E E E E E E   E E E E E E E E   E E E S S +E  E E E
|-----------------|-----------------|-----------------|---------------------|
|-----------------|-----------------|-----------------|---------1-(1)-------|
|-----------------|-0-0-0-0-0-1-3-1-|-0-0-0-0-1-0-0---|-0-0-0-0---------0---|
|-5-5-5-5-6-5-5-3-|-----------------|---------------3-|---------------3---3-|


  E E E E E E E E   E E E E E E E E   E E E E E E E E   E E E S S +E. S +Q
|-----------------|-----------------|-----------------|-----------------------|
|-----------------|-----------------|-----------------|-----------------------|
|-0-0-0-0-1-0-0---|-0-0-0-0-0-1-3-1-|-0-0-0-0-1-0-0---|-0-0-0-0-1-(1)-1-(1)---|
|---------------3-|-----------------|---------------3-|-----------------------|


  E E E E E E E E   E E E E E E E E   E E E E E E E E   E E E S S +E  E E E
|-----------------|-----------------|-----------------|----------------------|
|-----------------|-----------------|-----------------|---------1-(1)--------|
|-0-0-0-0-1-0-0---|-0-0-0-0-0-1-3-1-|-0-0-0-0-1-0-0---|-0-0-0-0---------0----|
|---------------3-|-----------------|---------------3-|---------------3---3--|


  E E E E E E E E   E E E E E E E E   E E E E E E E E   E E E S S +E. S +Q
|-----------------|-----------------|-----------------|-----------------------|
|-----------------|-----------------|-----------------|-----------------------|
|-0-0-0-0-1-0-0---|-0-0-0-0-0-1-3-1-|-0-0-0-0-1-0-0---|-0-0-0-0-1-(1)-1-(1)---|
|---------------3-|-----------------|---------------3-|-----------------------|


  S S S S S S S S S S S S S S S S   S S S S S S S S S S S S S S S S
|---------------------------------|---------------------------------|
|---------------------------------|---------------------------------|
|-1-1-1-1-1-1-1-1-1-1-1-1-1-1-1-1-|-1-1-1-1-1-1-1-1-1-1-1-1-1-1-1-1-|
|---------------------------------|---------------------------------|


  S S S S S S S S S S S S S S S S   S S S S S S S S S S S S S S S S
|---------------------------------|---------------------------------|
|---------------------------------|-0-0-0-0-0-0-0-0-----------------|
|-0-0-0-0-0-0-0-0-0-0-0-0-0-0-0-0-|-----------------1-1-1-1-1-1-1-1-|
|---------------------------------|---------------------------------|


  E E E E E E E E   E E E E E E E E   E E E E E E E E   E E E S S +E. S +Q
|-----------------|-----------------|-----------------|-----------------------|
|-----------------|-----------------|-----------------|-----------------------|
|-0-0-0-0-1-0-0---|-0-0-0-0-0-1-3-1-|-0-0-0-0-1-0-0---|-0-1-0-0-1-(1)-1-(1)---|
|---------------3-|-----------------|---------------3-|-----------------------|


  S S S S S S S S S S S S S S S S   S S S S S S S S S S S S S S S S
|---------------------------------|---------------------------------|
|---------------------------------|---------------------------------|
|-1-1-1-1-1-1-1-1-1-1-1-1-1-1-1-1-|-1-1-1-1-1-1-1-1-1-1-1-1-1-1-1-1-|
|---------------------------------|---------------------------------|


  S S S S S S S S S S S S S S S S   S S S S S S S S S S S S S S S S
|---------------------------------|---------------------------------|
|---------------------------------|-0-0-0-0-0-0-0-0-----------------|
|-0-0-0-0-0-0-0-0-0-0-0-0-0-0-0-0-|-----------------1-1-1-1-1-1-1-1-|
|---------------------------------|---------------------------------|


  E E E E E E E E   E E E E E E E E   E E E E E E E E   E E E S S +E. S +Q
|-----------------|-----------------|-----------------|-----------------------|
|-----------------|-----------------|-----------------|-----------------------|
|-0-0-0-0-1-0-0---|-0-0-0-0-0-1-3-1-|-0-0-0-0-1-0-0---|-0-1-0-0-1-(1)-1-(1)---|
|---------------3-|-----------------|---------------3-|-----------------------|


  S S S S S S S S S S S S S S S S   S S S S S S S S S S S S S S S S
|---------------------------------|---------------------------------|
|---------------------------------|---------------------------------|
|-1-1-1-1-1-1-1-1-1-1-1-1-1-1-1-1-|-1-1-1-1-1-1-1-1-1-1-1-1-1-1-1-1-|
|---------------------------------|---------------------------------|


  S S S S S S S S S S S S S S S S   S S S S S S S S S S S S S S S S
|---------------------------------|---------------------------------|
|---------------------------------|-0-0-0-0-0-0-0-0-----------------|
|-0-0-0-0-0-0-0-0-0-0-0-0-0-0-0-0-|-----------------1-1-1-1-1-1-1-1-|
|---------------------------------|---------------------------------|


   S  S  S  S  S  S  S  S  S  S  S  S  S  S  S  S
|-12s11----11-------------------------------------|
|-------13----13s12----12-------------------------|
|-------------------14----14s13s14s13----13-------|
|-------------------------------------15----15s14s|


  S S S S S S S S E E E E   E E  E  E  E  E  E  E
|---------------------7---|-7-8s12s11--------------|
|---------8-------8s9---9-|-----------13s12--------|
|-----7s9---9s7s9---------|-----------------14s13--|
|-7s9---------------------|------------------------|


                           3/4           5/4                   3/4
   E  E  Q   +E   E  +Q      Q   Q   Q     Q   Q   Q   Q   Q     Q   Q   Q
|-------------------------|-------------|---------------------|-------------|
|-------------------------|-------------|---------------------|-------------|
|----12-------------------|-------------|---------------------|-------------|
|-14----14--(14)-11-(11)--|-12--12--12--|-12--12--12--12--12--|-12--12--12--|


 5/4                   3/4        5/4              3/4
   Q   Q   Q   Q   Q    Q  Q  Q    Q  Q  Q  Q  Q    Q.   E +Q
|---------------------|----------|----------------|---------------|
|---------------------|----------|----------------|---------------|
|---------------------|----------|----------------|-6----8-(8)----|
|-12--12--12--12--12--|-8--8--8--|-8--8--8--8--8--|---------------|


 5/4              3/4           5/4                   3/4
   H.      Q  Q     Q   Q   Q     Q   Q   Q   Q   Q     Q   Q   Q
|----------------|-------------|---------------------|---------------|
|----------------|-------------|---------------------|---------------|
|-10-------------|-------------|---------------------|---------------|
|----------------|-12--12--12--|-12--12--12--12--12--|-12--12--12----|


 5/4                   3/4        5/4              3/4
   Q   Q   Q   Q   Q    Q  Q  Q    Q  Q  Q  Q  Q    Q.   E +Q
|---------------------|----------|----------------|---------------|
|---------------------|----------|----------------|---------------|
|---------------------|----------|----------------|-6----8-(8)----|
|-12--12--12--12--12--|-8--8--8--|-8--8--8--8--8--|---------------|


 5/4              3/4              5/4
   H.      Q  Q     Q.    E  +Q      W         +Q
|----------------|----------------|-----------------*|
|----------------|----------------|-----------------*|
|-10-------------|----------------|-----------------*|
|----------------|-11----13-(13)--|-15--------(15)--*|



Duration Legend
---------------
W - whole; H - half; Q - quarter; E - 8th; S - 16th; T - 32nd; X - 64th; a - acciaccatura
+ - note tied to previous; . - note dotted; .. - note double dotted
Uncapitalized letters represent notes that are staccato (1/2 duration)
Irregular groupings are notated above the duration line
Duration letters will always appear directly above the note/fret number it represents the
duration for.  Duration letters with no fret number below them represent rests.  Multi-
bar rests are notated in the form Wxn, where n is the number of bars to rest for.  Low
melody durations appear below the staff

            
            
Suggest correction
Creating personal tab
Creating personal tab
You can edit any tab online and save it as your Personal.

You can edit, replace or remove any tab part or add personal notes – all changes will be seen only by you.

Personal tabs can be accessed anytime from any device, even offline.
Learn more »
Give kudos to tab author, rate the tab!
1 2 3 4 5
comments
print report bad tab
guest
You may want to rate the tab now too:
select rating
Wanna post a correction for this tab? Suggest correction