Oops, an error
Loading. Please wait.

Stigmata tab

version 2
version 2

Whole song

Interactive

518 views 1 this week
no commentswrite comment
1 2 3 4 5
3 more votes to show rating
add to favorites
×
Save as Personal and add changes to this tab that will be seen only by you. Learn more ›
×
You can save this tab as Personal to edit and correct it or add notes. All changes will be seen only by you. Learn more »
launch autoscroll
font size
0
reset
how to read this tab
guitar tuner
edit
Autoscroll
slow
fast
+/-
esc
set tempo
stop
#----------------------------------PLEASE NOTE---------------------------------#
#This file is the author's own work and represents their interpretation of the #
#song. You may only use this file for private study, scholarship, or research. #
#------------------------------------------------------------------------------#

STIGMATA
As recorded by Arch Enemy
(From the 1998 Album STIGMATA)

Transcribed by The Foreverlorn
        

Music by Michael Amott
Arranged by Michael Amott, Christopher Amott, Peter Wildoer

Gtr I (B E A D F# B) - 'Michael Lead'
Gtr II (B E A D F# B) - 'Christopher Lead'
Gtr III (B E A D F# B) - 'Rhythm'
Gtr IV (B E A D F# B) - 'Michael 2nd Lead'
Gtr V (B E A D F# B) - 'Christopher 2nd Lead'

   Intro
    Q=140
    Bb5        G5   F#5    Bb5        G5   F#5
   4/4
    Gtrs I, II
    W          H    H      W          H    H
||-----------|-----------|----------|------------||
||o----------|-----------|----------|-----------o||
||--3--------|-----------|-3--------|------------||
||--3--------|-5----4----|-3--------|-5----4-----||
||o-1--------|-5----4----|-1--------|-5----4----o||
||-----------|-3----2----|----------|-3----2-----||


    Bb5        G5   F#5    Bb5        G5   F#5
    Gtr I
    W          H    H      W          H    H
||-----------|-----------|----------|------------||
||o----------|-----------|----------|-----------o||
||--6--------|-----------|-6--------|------------||
||-----------|-8----7----|----------|-8----7-----||
||o-4--------|-----------|-4--------|-----------o||
||-----------|-6----5----|----------|-6----5-----||
|
|   Gtr II
|   W          H    H      W          H    H
||-----------|-----------|----------|------------||
||o----------|-----------|----------|-----------o||
||--3--------|-----------|-3--------|------------||
||--3--------|-5----4----|-3--------|-5----4-----||
||o-1--------|-5----4----|-1--------|-5----4----o||
||-----------|-3----2----|----------|-3----2-----||


   Harmony Lead
    C        D        Em       D
   4/4
     |--3--|  |--3--|  |--3--|  |--3--|
     E  E  E  E  E  E  E  E  E  E  E  E
||--------------------------------------|
||o-------17S19-------------20S19-------|
||--------------------------------------|
||-----14-------16-------17-------16----|
||o-15-------------17S19-------------17S|
||--------------------------------------|
|
|    |--3--|  |--3--|  |--3--|  |--3--|
|    E  E  E  E  E  E  E  E  E  E  E  E
||--------15S17-------------19S17-------|
||o-------------------------------------|
||-----12-------14-------16-------14----|
||--14-------------16S17-------------16S|
||o-------------------------------------|
||--------------------------------------|


  C        D        Em
   |--3--|  |--3--|  |--3--|
   E  E  E  E  E  E  E  E  E  E  +E    4x
|--------------------------------------||
|-------17S19-------------20S19-(19)\-o||
|--------------------------------------||
|----14-------16-------17--------------||
|-15-------------17S19----------------o||
|--------------------------------------||
|
|  |--3--|  |--3--|  |--3--|
|  E  E  E  E  E  E  E  E  E  E  +E    4x
|-------15S17-------------19S17-(17)\--||
|-------------------------------------o||
|----12-------14-------16--------------||
|-14-------------16S17-----------------||
|-------------------------------------o||
|--------------------------------------||


    C        D        Em       D
     |--3--|  |--3--|  |--3--|  |--3--|
     E  E  E  E  E  E  E  E  E  E  E  E
||--------------------------------------|
||o-------17-------19-------20S19-------|
||--------------------------------------|
||-----14-------16-------17-------16----|
||o-15-------17-------19-------------17-|
||--------------------------------------|
|
|    |--3--|  |--3--|  |--3--|  |--3--|
|    E  E  E  E  E  E  E  E  E  E  E  E
||--------15-------17-------19S17-------|
||o-------------------------------------|
||-----12-------14-------16-------14----|
||--14-------16-------17-------------16-|
||o-------------------------------------|
||--------------------------------------|


  C        D        Em
   |--3--|  |--3--|  |--3--|
   E  E  E  E  E  E  E  E  E  E  +E
|--------------------------------------||
|-------17-------19-------20S19-(19)\-o||
|--------------------------------------||
|----14-------16-------17--------------||
|-15-------17-------19----------------o||
|--------------------------------------||
|
|  |--3--|  |--3--|  |--3--|
|  E  E  E  E  E  E  E  E  E  E  +E
|-------15-------17-------19S17-(17)\--||
|-------------------------------------o||
|----12-------14-------16--------------||
|-14-------16-------17-----------------||
|-------------------------------------o||
|--------------------------------------||


 Lead: Michael Amott
  C5          D5        E5        B5           C5        D5       E5
  Gtr I
                                                                    ~~~~
                                   |--3---|      |--3--|  |--3--|
   E      +E   +E   +E   +E   +E   E  E  +E      E  E  E  E  E  E   Q.    +E
|-19b22==(19)-(19)-(19)-(19)-(19)r19p17-(17)-|-/15-14-15-14-12-----------------|
|--------------------------------------------|-----------------15-/12----(12)\-|
|--------------------------------------------|---------------------------------|
|--------------------------------------------|---------------------------------|
|--------------------------------------------|---------------------------------|
|--------------------------------------------|---------------------------------|
|
| Gtr IV
|  W                                             W
|--------------------------------------------|---------------------------------|
|--------------------------------------------|---------------------------------|
|--------------------------------------------|---------------------------------|
|--------------------------------------------|---------------------------------|
|--------------------------------------------|---------------------------------|
|--------------------------------------------|---------------------------------|
|
| Gtr III
|  Q            Q         Q        Q             Q        Q         H
|--------------------------------------------|---------------------------------|
|--------------------------------------------|---------------------------------|
|--5------------7---------9--------4---------|---5--------7---------9----------|
|--5------------7---------9--------4---------|---5--------7---------9----------|
|--3------------5---------7--------2---------|---3--------5---------7----------|
|--------------------------------------------|---------------------------------|


  C5    D5   E5    B5     C5    D5   E5
   |---3---|  |---3---|    |---3---|
   Q  Q    Q  Q  Q    Q    Q  Q    Q  Q.    +E
|-----------------------|-------------------------|
|-12-13---15-13-12------|-------------------------|
|--------------------14-|-12-11-------------------|
|-----------------------|---------12-14----(14)\--|
|-----------------------|-------------------------|
|-----------------------|-------------------------|
|
|  |---3---|  |---3---|    |---3---|
|  Q  Q    Q  Q  Q    Q    Q  Q    Q  Q.    +E
|-----------------------|-------------------------|
|-15-17---19-17-15------|-------------------------|
|--------------------17-|-16----------------------|
|-----------------------|----19---16-17----(17)\--|
|-----------------------|-------------------------|
|-----------------------|-------------------------|
|
|  Q    Q     Q    Q       Q    Q     H
|-----------------------|-------------------------|
|-----------------------|-------------------------|
|--5----7-----9----4----|--5----7-----9-----------|
|--5----7-----9----4----|--5----7-----9-----------|
|--3----5-----7----2----|--3----5-----7-----------|
|-----------------------|-------------------------|


  C5       D5       E5       B5         C5     D5   E5
  Gtr I
                                          ~~~~~~~~~~~~~~~
   |--3--|  |--3--|  |--3--|              |---3---|
   E  E  E  E  E  E  E  E  E  E  +E       Q  Q    Q   Q.    +E
|-------------------------------------|--------------------------|
|----------13-------------------------|-/17-15---17-/12----(12)\-|
|----12-16----16-12-16-12-------------|--------------------------|
|-14----------------------14----------|--------------------------|
|----------------------------14-(14)\-|--------------------------|
|-------------------------------------|--------------------------|
|
| Gtr III
|  Q        Q        Q        Q           Q    Q      H
|-------------------------------------|--------------------------|
|-------------------------------------|--------------------------|
|--5--------7--------9--------4-------|---5----7------9----------|
|--5--------7--------9--------4-------|---5----7------9----------|
|--3--------5--------7--------2-------|---3----5------7----------|
|-------------------------------------|--------------------------|


  C5               D5               E5               B5                 C5                D5            E5
   ~~~~~~~~~~~~~~~~~~~~~~~~~~~~~~~~~~~~~~~~~~~~~~~~~~~~~~~~~~~~~~~~~~~                                    ~~~~
   |-----3------|   |-----3------|   |-----3------|   |-----3------|
   E       E   +E   E       E   +E   E       E   +E   E       E   +E     S      +S   S  S  E  S     +S   +Q.    +E
|---------------------------------------------------------------------|------------------------------------------------|
|---------15--(15)---------15--(15)---------15--(15)---------15--(15)-|-15b17==(15)r15-12-15-15b17-(15)-(15)---(15)\---|
|-14b16==(14)r(14)-14b16==(14)r(14)-14b16==(14)r(14)-14b16==(14)r(14)-|------------------------------------------------|
|---------------------------------------------------------------------|------------------------------------------------|
|---------------------------------------------------------------------|------------------------------------------------|
|---------------------------------------------------------------------|------------------------------------------------|
|
|  Q                Q                Q                Q                  Q                 Q              H
|---------------------------------------------------------------------|------------------------------------------------|
|---------------------------------------------------------------------|------------------------------------------------|
|--5----------------7----------------9----------------4---------------|--5-----------------7--------------9------------|
|--5----------------7----------------9----------------4---------------|--5-----------------7--------------9------------|
|--3----------------5----------------7----------------2---------------|--3-----------------5--------------7------------|
|---------------------------------------------------------------------|------------------------------------------------|


  C5          D5          E5          B5
   |---3----|  |---3----|  |---3----|  |---3----|
   E     E  E  E     E  E  E     E  E  E     E  E
|----------12----------12----------12----------12-|
|-------12----------12----------12----------12----|
|-14b15-------14b15-------14b15-------14b15-------|
|-------------------------------------------------|
|-------------------------------------------------|
|-------------------------------------------------|
|
|  Q           Q           Q           Q
|-------------------------------------------------|
|-------------------------------------------------|
|--5-----------7-----------9-----------4----------|
|--5-----------7-----------9-----------4----------|
|--3-----------5-----------7-----------2----------|
|-------------------------------------------------|


  C5          D5          E5                             C5    D5   E5    B5     C5    D5   E5
                               ~~~~~~~~~~~~~~~~~~                                            ~~
   |---3----|  |---3----|                                 |---3---|  |---3---|    |---3---|
   E     E  E  E     E  E  S  +S   +S   +S   +S   +E.     Q  Q    Q  Q  Q    Q    Q  Q    Q  H
|----------12----------12-14-(14)-(14)-(14)-(14)-(14)\-|-12-14---15-14-12------|-12---------------|
|-------12----------12---------------------------------|--------------------15-|----15------------|
|-14b15-------14b15------------------------------------|-----------------------|---------12-------|
|------------------------------------------------------|-----------------------|------------14----|
|------------------------------------------------------|-----------------------|------------------|
|------------------------------------------------------|-----------------------|------------------|
|
|  Q           Q           H                              Q    Q     Q    Q       Q    Q     H
|------------------------------------------------------|-----------------------|------------------|
|------------------------------------------------------|-----------------------|------------------|
|--5-----------7-----------9---------------------------|--5----7-----9----4----|--5----7-----9----|
|--5-----------7-----------9---------------------------|--5----7-----9----4----|--5----7-----9----|
|--3-----------5-----------7---------------------------|--3----5-----7----2----|--3----5-----7----|
|------------------------------------------------------|-----------------------|------------------|


  C5                D5                E5                B5
   |--3--|  |--3--|  |--3--|  |--3--|  |--3--|  |--3--|  |--3--|  |--3--|
   S  S  S  S  S  S  S  S  S  S  S  S  S  S  S  S  S  S  S  S  S  S  S  S
|-------------------------------------------------------------------------|
|-------------------------------------------------------------------------|
|----------------------------------------------------------------------12-|
|-------------------------------------------12----12-14-12-14-16-14-16----|
|----------------12----12-14-12-14-15-14-15----15-------------------------|
|-12-14-15-14-15----15----------------------------------------------------|
|
|  Q                 Q                 Q                 Q
|-------------------------------------------------------------------------|
|-------------------------------------------------------------------------|
|--5-----------------7-----------------9-----------------4----------------|
|--5-----------------7-----------------9-----------------4----------------|
|--3-----------------5-----------------7-----------------2----------------|
|-------------------------------------------------------------------------|


  C5                D5                E5
   |--3--|  |--3--|  |--3--|  |--3--|
   S  S  S  S  S  S  S  S  S  S  S  S  S  +S   +S      +S      +S      +S   +E
|-------------------------------------14-(14)-(14)b17r(14)b17r(14)b17r(14)-(14)\-|
|----------------12----12-13-12-13-15--------------------------------------------|
|----12-14-12-14----14-----------------------------------------------------------|
|-16-----------------------------------------------------------------------------|
|--------------------------------------------------------------------------------|
|--------------------------------------------------------------------------------|
|
|  Q                 Q                 H
|--------------------------------------------------------------------------------|
|--------------------------------------------------------------------------------|
|--5-----------------7-----------------9-----------------------------------------|
|--5-----------------7-----------------9-----------------------------------------|
|--3-----------------5-----------------7-----------------------------------------|
|--------------------------------------------------------------------------------|


  C5    D5   E5       B5        C5  D5     E5
               \1/
                                            ~~~
   |---3---|   |----3----|
   Q  Q    Q  +Q    Q    Q       Q   S  E.  Q.    +E
|-15-17---19-(19)--17---14b15r|=14--15-14--12----(12)\-|
|-----------------------------|------------------------|
|-----------------------------|------------------------|
|-----------------------------|------------------------|
|-----------------------------|------------------------|
|-----------------------------|------------------------|
|
|  Q    Q      Q      Q          Q   Q      H
|-----------------------------|------------------------|
|-----------------------------|------------------------|
|--5----7------9------4-------|--5---7------9----------|
|--5----7------9------4-------|--5---7------9----------|
|--3----5------7------2-------|--3---5------7----------|
|-----------------------------|------------------------|


 Lead: Christopher Amott
  N.C.
  Gtr II
      |--3--|  |--3--|  |--3--|  |--3--|
   a  E  E  E  E  E  E  E  E  E  E  E  E
|-15h19-15----------------------------15-|
|----------17----------------------17----|
|-------------16----------------16-------|
|----------------17----------17----------|
|-------------------19----19-------------|
|----------------------19----------------|
|
| Gtr V
|     |--3--|  |--3--|  |--3--|  |--3--|
|  a  E  E  E  E  E  E  E  E  E  E  E  E
|-12h15-12----------------------------12-|
|----------12----------------------12----|
|-------------12----------------12-------|
|----------------14----------14----------|
|-------------------14----14-------------|
|----------------------12----------------|
|
| Gtr III
|     PM----------------------------------
|     |--3--|  |--3--|  |--3--|  |--3--|
|     E  E  E  E  E  E  E  E  E  E  E  E
|----------------------------------------|
|----------------------------------------|
|----------------------------------------|
|----------------------------------------|
|-----7--7--7--7--7--7--7--7--7--7--7--7-|
|----------------------------------------|


      |--3--|  |--3--|  |--3--|  |--3--|
   a  E  E  E  E  E  E  E  E  E  E  E  E
|-15h20-15-------------------------------|
|----------17----------------------17-20-|
|-------------17----------------17-------|
|----------------17----------17----------|
|-------------------19----19-------------|
|----------------------20----------------|
|
|     |--3--|  |--3--|  |--3--|  |--3--|
|  a  E  E  E  E  E  E  E  E  E  E  E  E
|-12h15-12-------------------------------|
|----------13----------------------13-17-|
|-------------12----------------12-------|
|----------------14----------14----------|
|-------------------15----15-------------|
|----------------------15----------------|
|
|-------------------------------------|
|     |--3--|  |--3--|  |--3--|  |--3--|
|     E  E  E  E  E  E  E  E  E  E  E  E
|----------------------------------------|
|----------------------------------------|
|----------------------------------------|
|----------------------------------------|
|----------------------------------------|
|-----8--8--8--8--8--8--8--8--8--8--8--8-|


  N.C.
      |--3--|  |--3--|  |--3--|  |--3--|
   a  E  E  E  E  E  E  E  E  E  E  E  E
|-14h19-14-------------------------------|
|----------16----------------------16-19-|
|-------------16----------------16-------|
|----------------16----------16----------|
|-------------------18-14-18-------------|
|----------------------------------------|
|
|     |--3--|  |--3--|  |--3--|  |--3--|
|  a  E  E  E  E  E  E  E  E  E  E  E  E
|-11h14-11-------------------------------|
|----------12----------------------12-16-|
|-------------11----------------11-------|
|----------------13----------13----------|
|-------------------14----14-------------|
|----------------------14----------------|
|
|     PM----------------------------------
|     |--3--|  |--3--|  |--3--|  |--3--|
|     E  E  E  E  E  E  E  E  E  E  E  E
|----------------------------------------|
|----------------------------------------|
|----------------------------------------|
|----------------------------------------|
|----------------------------------------|
|-----7--7--7--7--7--7--7--7--7--7--7--7-|


      |--3--|  |--3--|     |--3--|  |--3--|
   a  E  E  E  E  E  E  a  E  E  E  E  E  E
|-13h18-13-------------12h15-12--------------|
|----------15-------------------13-----------|
|-------------15-------------------14--------|
|----------------15-------------------14-----|
|-------------------17-------------------15--|
|--------------------------------------------|
|
|     |--3--|  |--3--|     |--3--|  |--3--|
|  a  E  E  E  E  E  E  a  E  E  E  E  E  E
|-10h13-10--------------8h12--8--------------|
|----------11-------------------10-----------|
|-------------10-------------------10--------|
|----------------12-------------------10-----|
|-------------------13-------------------12--|
|--------------------------------------------|
|
|----------------------------------------|
|     |--3--|  |--3--|     |--3--|  |--3--|
|     E  E  E  E  E  E     E  E  E  E  E  E
|--------------------------------------------|
|--------------------------------------------|
|--------------------------------------------|
|--------------------------------------------|
|--------------------------8--8--8--8--8--8--|
|-----6--6--6--6--6--6-----------------------|


  N.C.
            ~~~~~~~~~~~~~~~~~~~~~~~~
   E       +E     +E     +E     +E     E.      E.
|-----------------------------------------------------|
|-13b15---(13)---(13)---(13)---(13)---13------12------|
|-----------------------------------------------------|
|-----------------------------------------------------|
|-----------------------------------------------------|
|-----------------------------------------------------|
|
|           ~~~~~~~~~~~~~~~~~~~~~~~~
|  E       +E     +E     +E     +E     E.      E.
|-----------------------------------------------------|
|-----------------------------------------------------|
|-14b16---(14)---(14)---(14)---(14)---14------12------|
|-----------------------------------------------------|
|-----------------------------------------------------|
|-----------------------------------------------------|
|
|  PM--------------------------------------------------
|  |-----3-----|   |----3----|   |---3----| |---3---|
|  E    E      E   E  E      E   E  E     E E     E E
|-----------------------------------------------------|
|-----------------------------------------------------|
|-----------------------------------------------------|
|-----------------------------------------------------|
|--7----7------7---7--7------7---7--7-----7-7-----7-7-|
|-----------------------------------------------------|


   ~~                               ~~~~~~~~
   Q      +E     T      +T     +S   S  +Q..
|-----------------------------------------------------|
|-----------------------------------------------------|
|-14-----(14)---14b16==(14)r==(14)-12-(12)------------|
|-----------------------------------------------------|
|-----------------------------------------------------|
|-----------------------------------------------------|
|
|  ~~                               ~~~~~~~~
|  Q      +E     T      +T      S   S  +Q..
|-----------------------------------------------------|
|-----------------------------------------------------|
|-11-----(11)---11b12==(11)r===11---------------------|
|----------------------------------14-(14)------------|
|-----------------------------------------------------|
|-----------------------------------------------------|
|
|---------------------------------------------------|
|  |-3-|   |-------3--------|       |----3----| |-3-|
|  E E E   E  E             E       E       E E E E E
|-----------------------------------------------------|
|-----------------------------------------------------|
|-----------------------------------------------------|
|-----------------------------------------------------|
|-----------------------------------------------------|
|--8-8-8---8--8-------------8-------8-------8-8-8-8-8-|


  N.C.
  Gtr II
   |--3--|  |--3--|  |--3--|  |--3--|  |--3--|  |--3--|  |--3--|  |--3--|
   S  S  S  S  S  S  S  S  S  S  S  S  S  S  S  S  S  S  S  S  S  S  S  S
|-------------------------------------------------------------12-14-11-12-|
|-------------------------------------------12-13----12-13-15-------------|
|-------------------------11-12----11-12-14-------14----------------------|
|-------13-14-------13-14-------14----------------------------------------|
|-14-15-------14-15-------------------------------------------------------|
|-------------------------------------------------------------------------|
|
| Gtr III
|  PM----------------------------------------------------------------------
|  |-----3-----|     |-----3-----|     |-----3-----|     |-----3-----|
|  E     E     E     E     E     E     E     E     E     E     E     E
|-------------------------------------------------------------------------|
|-------------------------------------------------------------------------|
|-------------------------------------------------------------------------|
|-------------------------------------------------------------------------|
|-------------------------------------------------------------------------|
|--7-----7-----7-----7-----7-----7-----7-----7-----7-----7-----7-----7----|


      |--3--|  |--3--|  |--3--|  |--3---|
   a  E  E  E  E  E  E  E  E  E  E  E  +E
|-15h18-15----------------------17-19-(19)b22--|
|----------17-14----------13-18----------------|
|----------------15-12-14----------------------|
|----------------------------------------------|
|----------------------------------------------|
|----------------------------------------------|
|
|-------------------------------------|
|     |--3--|  |--3--|  |--3--|  |--3---|
|     E  E  E  E  E  E  E  E  E  E  E   E
|----------------------------------------------|
|----------------------------------------------|
|----------------------------------------------|
|----------------------------------------------|
|-----------------------8--8--8--8--8---8------|
|-----6--6--6--6--6--6-------------------------|


  N.C.
                                                             ~~~~
   |-----3-----|                  |---3---|    |---3----|
   E  +E      +E   +T       +T    S    S  S    S  S    +S   +Q         E.
|-19-(19)b22r(19)-(19)b22==(19)r-19p==15------------------------------20------|
|----------------------------------------17-----------------------------------|
|---------------------------------------------20p16---(16)-(16)---------------|
|-----------------------------------------------------------------------------|
|-----------------------------------------------------------------------------|
|-----------------------------------------------------------------------------|
|
|  PM--------------------------------------------------------------------------
|  |-----3-----|    |-----------3-----------|       |------3------| |---3---|
|  E   E       E    E               E       E       E           E E E     E E
|-----------------------------------------------------------------------------|
|-----------------------------------------------------------------------------|
|-----------------------------------------------------------------------------|
|-----------------------------------------------------------------------------|
|--7---7-------7----7---------------7-------7-------7-----------7-7-7-----7-7-|
|-----------------------------------------------------------------------------|


                                   ~~~~~~~~~~~~~~~~
   |--3--|  |--3--|  |--3--|  |----3-----|
   E  E  E  E  E  E  S  S  S  E    E    +E     +E
|-19-20----20----20----------------------------------|
|-------22----20----16-17-19-16---19---(19)---(19)---|
|----------------------------------------------------|
|----------------------------------------------------|
|----------------------------------------------------|
|----------------------------------------------------|
|
|--------------------------------------------------|
|  |--3--|  |--3--|  |----3-----|    |------3------|
|  E  E  E  E  E  E  E     E    E    E      E      E
|----------------------------------------------------|
|----------------------------------------------------|
|----------------------------------------------------|
|----------------------------------------------------|
|----------------------------------------------------|
|--8--8--8--8--8--8--8-----8----8----8------8------8-|


  N.C.
                                             ~~~~~~~~~~~~~~~~
      |--3--|  |--3--|  |--3--|  |--3--|
   a  E  E  E  E  E  E  E  E  E  E  E  E     H             H
|-11h12-11-------------------------------|-----------------------------|
|----------13-12-------------------------|-----------------------------|
|----------------14-12-11----------------|-----------------------------|
|-------------------------14-13----------|-----------------------------|
|-------------------------------15-14-12-|-/13-----------/15-----------|
|----------------------------------------|-----------------------------|
|
|     PM-------------------------------------------------------------|
|     |--3--|  |--3--|  |--3--|  |--3--|     |-3-| |-3-|   |-3-| |-3-|
|     E  E  E  E  E  E  E  E  E  E  E  E     E E E E E E   E E E E E E
|----------------------------------------|-----------------------------|
|----------------------------------------|-----------------------------|
|----------------------------------------|-----------------------------|
|----------------------------------------|-----------------------------|
|----------------------------------------|-----------------8-8-8-8-8-8-|
|-----7--7--7--7--7--7--7--7--7--7--7--7-|---6-6-6-6-6-6---------------|


  N.C.
   |--3--|  |--3--|  |--3--|  |--3--|
   E  E  E  E  E  E  E  E  E  E  E  E
|----------------14-15-16-17-20-19-18-|
|-------------16----------------------|
|-14-15-16-17-------------------------|
|-------------------------------------|
|-------------------------------------|
|-------------------------------------|
|
|  PM----------------------------------
|  |--3--|  |--3--|  |--3--|  |--3--|
|  E  E  E  E  E  E  E  E  E  E  E  E
|-------------------------------------|
|-------------------------------------|
|-------------------------------------|
|-------------------------------------|
|--7--7--7--7--7--7--7--7--7--7--7--7-|
|-------------------------------------|


   e   S    E    +S     S    S  E    +Q.
|-17---------------------------------------------|
|----------19---(19)---16------------------------|
|---------------------------17-16---(16)---------|
|------------------------------------------------|
|------------------------------------------------|
|------------------------------------------------|
|
|----------------------------------------------|
|  |--3--|    |-----3-----|     |---3----| |-3-|
|  E E   E    E      E    E     E E      E E E E
|------------------------------------------------|
|------------------------------------------------|
|------------------------------------------------|
|------------------------------------------------|
|------------------------------------------------|
|--8-8---8----8------8----8-----8-8------8-8-8-8-|


  N.C.
                     ~~
   |--3--|  |--3--|                  |---3---|  |--3--|   |----3----|  |--3--|
   E  E  E  E  E  E  H              +E    E  E  E  E  E  +E   +E    E  E  E  E
|--------------------------------|------/15-----------------------/18----------|
|--------------------------------|----------17------------------------20-------|
|--------------------------------|-------------18-15---------------------21-18-|
|----------------13-14-----------|-(14)--------------17-(17)-(17)--------------|
|-------13-14-15-----------------|---------------------------------------------|
|-14-15--------------------------|---------------------------------------------|
|
|  PM-----------------------------------------------------------------------|
|  |--3--|  |--3--|  |-3-| |-3-|     |---3---|  |--3--|   |----3----|  |--3--|
|  E  E  E  E  E  E  E E E E E E     E    E  E  E  E  E   E    E    E  E  E  E
|--------------------------------|---------------------------------------------|
|--------------------------------|---------------------------------------------|
|--------------------------------|---------------------------------------------|
|--------------------------------|---------------------------------------------|
|--------------------------------|------------------------8----8----8--8--8--8-|
|--7--7--7--7--7--7--7-7-7-7-7-7-|---6----6--6--6--6--6------------------------|


 Outro
  Bb5                G5   F#5    Bb5        G5   F#5
  Gtr II
   ~~~~
   H..        +E     H    H      W          H    H
|------------------|-----------|----------|-----------|
|------------------|-----------|----------|-----------|
|------------------|-----------|-6--------|-----------|
|-20---------(20)\-|-8----7----|----------|-8----7----|
|------------------|-----------|-4--------|-----------|
|------------------|-6----5----|----------|-6----5----|
|
| Gtr I
|  W                 W           W          W
|------------------|-----------|----------|-----------|
|------------------|-----------|----------|-----------|
|--6---------------|-----------|----------|-----------|
|------------------|-----------|----------|-----------|
|--4---------------|-----------|----------|-----------|
|------------------|-----------|----------|-----------|
|
| Gtr III
|  W                 H    H      W          H    H
|------------------|-----------|----------|-----------|
|------------------|-----------|----------|-----------|
|--3---------------|-----------|-3--------|-----------|
|--3---------------|-5----4----|-3--------|-5----4----|
|--1---------------|-5----4----|-1--------|-5----4----|
|------------------|-3----2----|----------|-3----2----|


  Bb5        G5   F#5    Bb5        G5   F#5
  Gtr I
  W          H    H      W          H    H
|----------|-----------|----------|-----------|
|----------|-----------|----------|-----------|
|-6--------|-----------|-6--------|-----------|
|----------|-8----7----|----------|-8----7----|
|-4--------|-----------|-4--------|-----------|
|----------|-6----5----|----------|-6----5----|
|
| Gtr II
| W          H    H      W          H    H
|----------|-----------|----------|-----------|
|----------|-----------|----------|-----------|
|-3--------|-----------|-3--------|-----------|
|-3--------|-5----4----|-3--------|-5----4----|
|-1--------|-5----4----|-1--------|-5----4----|
|----------|-3----2----|----------|-3----2----|


  E5
   \5_______________________________________|
   Q     +Q    +Q    +Q      +H      +Q    +Q      +H      +H        +W
|-------------------------|---------------------|-----------------|---------*|
|-------------------------|---------------------|-----------------|---------*|
|-------------------------|---------------------|-----------------|---------*|
|-------------------------|---------------------|-----------------|---------*|
|-------------------------|---------------------|-----------------|---------*|
|-12----(12)--(12)--(12)--|-(12)----(12)--(12)--|-(12)----(12)----|-(12)----*|
|
|  W                         +W                    +W                +W
|-------------------------|---------------------|-----------------|---------*|
|-------------------------|---------------------|-----------------|---------*|
|-------------------------|---------------------|-----------------|---------*|
|--2----------------------|--(2)----------------|--(2)------------|--(2)----*|
|--2----------------------|--(2)----------------|--(2)------------|--(2)----*|
|--0----------------------|--(0)----------------|--(0)------------|--(0)----*|



Duration Legend
---------------
W - whole; H - half; Q - quarter; E - 8th; S - 16th; T - 32nd; X - 64th; a - acciaccatura
+ - note tied to previous; . - note dotted; .. - note double dotted
Uncapitalized letters represent notes that are staccato (1/2 duration)
Irregular groupings are notated above the duration line
Duration letters will always appear directly above the note/fret number it represents the
duration for.  Duration letters with no fret number below them represent rests.  Multi-
bar rests are notated in the form Wxn, where n is the number of bars to rest for.  Low
melody durations appear below the staff

Tablature Legend
----------------
 h   - hammer-on
 p   - pull-off
 b   - bend
 pb  - pre-bend
 r   - bend release (if no number after the r, then release immediately)
 /\  - slide into or out of (from/to "nowhere")
 s   - legato slide
 S   - shift slide
 - natural harmonic
[n]  - artificial harmonic
n(n) - tapped harmonic
 ~   - vibrato
 tr  - trill
 T   - tap
 TP  - trem. picking
 PM  - palm muting
\n/  - tremolo bar dip; n = amount to dip
 \n  - tremolo bar down
 n/  - tremolo bar up
/n\  - tremolo bar inverted dip
 =   - hold bend; also acts as connecting device for hammers/pulls
 <> - volume swell (louder/softer)
 x   - on rhythm slash represents muted slash
 o   - on rhythm slash represents single note slash

Misc Legend
-----------
 |  - bar
||  - double bar
||o - repeat start
o|| - repeat end
*|  - double bar (ending)
 :  - bar (freetime)
 $  - Segno
 &  - Coda
Tempo markers -  = BPM(8/16=s8/s16), where s8 = swing 8ths, s16 = swing 16ths


            
            
Suggest correction
Creating personal tab
Creating personal tab
You can edit any tab online and save it as your Personal.

You can edit, replace or remove any tab part or add personal notes – all changes will be seen only by you.

Personal tabs can be accessed anytime from any device, even offline.
Learn more »
Give kudos to tab author, rate the tab!
1 2 3 4 5
comments
print report bad tab
guest
You may want to rate the tab now too:
select rating
Wanna post a correction for this tab? Suggest correction