Oops, an error
Loading. Please wait.

Vultures tab

version 1
version 1

Whole song

Interactive

13,415 views 6 this week
3 commentsread comments
1 2 3 4 5
x 6
add to favorites
×
Save as Personal and add changes to this tab that will be seen only by you. Learn more ›
×
You can save this tab as Personal to edit and correct it or add notes. All changes will be seen only by you. Learn more »
launch autoscroll
font size
0
reset
how to read this tab
guitar tuner
edit
Autoscroll
slow
fast
+/-
esc
set tempo
stop
-------------------------------------------------------------------------------
                             Vultures - Arch Enemy
-------------------------------------------------------------------------------
Tabbed by: Chris F.
Email: cerealkilla_88@yahoo.com

Tuning: C


| /  Slide up
| \  Slide down
| h  Hammer-on
| p  Pull-off
| ~  Vibrato
| b^ Bend up
| v  Bend back down


Christopher: Intro
e|-----------15----------15----------15----------15---|
B|--13-15-16----13-15-16----13-15-16----13-15-16------|
G|----------------------------------------------------|
D|----------------------------------------------------|
A|----------------------------------------------------|
E|----------------------------------------------------|

e|----------11---------11---------11---------11-------|
B|--9-11-13----9-11-13----9-11-13----9-11-13----------|
G|----------------------------------------------------|
D|----------------------------------------------------|
A|----------------------------------------------------|
E|----------------------------------------------------|

e|-----------13----------13----------13----------13---|
B|--12-13-15----12-13-15----12-13-15----12-13-15------|
G|----------------------------------------------------|
D|----------------------------------------------------|
A|----------------------------------------------------|
E|----------------------------------------------------|

e|-----------15----------15----------15----------15---|
B|--13-15-16----13-15-16----13-15-16----13-15-16------|
G|----------------------------------------------------|
D|----------------------------------------------------|
A|----------------------------------------------------|
E|----------------------------------------------------|

e|-----------15----------15----------15----------15---|
B|--13-15-16----13-15-16----13-15-16----13-15-16------|
G|----------------------------------------------------|
D|----------------------------------------------------|
A|----------------------------------------------------|
E|----------------------------------------------------|

e|----------11---------11---------11---------11-------|
B|--9-11-13----9-11-13----9-11-13----9-11-13----------|
G|----------------------------------------------------|
D|----------------------------------------------------|
A|----------------------------------------------------|
E|----------------------------------------------------|

e|-----------13----------13----------13----------13---|
B|--12-13-15----12-13-15----12-13-15----12-13-15------|
G|----------------------------------------------------|
D|----------------------------------------------------|
A|----------------------------------------------------|
E|----------------------------------------------------|

e|-----------15----------15----------15----------15---|
B|--13-15-16----13-15-16----13-15-16----13-15-16------|
G|----------------------------------------------------|
D|----------------------------------------------------|
A|----------------------------------------------------|
E|----------------------------------------------------|

e|-----------15----------15----------15----------15---|
B|--13-15-16----13-15-16----13-15-16----13-15-16------|
G|----------------------------------------------------|
D|----------------------------------------------------|
A|----------------------------------------------------|
E|----------------------------------------------------|

e|----------11---------11---------11---------11-------|
B|--9-11-13----9-11-13----9-11-13----9-11-13----------|
G|----------------------------------------------------|
D|----------------------------------------------------|
A|----------------------------------------------------|
E|----------------------------------------------------|

e|-----------13----------13----------13----------13---|
B|--12-13-15----12-13-15----12-13-15----12-13-15------|
G|----------------------------------------------------|
D|----------------------------------------------------|
A|----------------------------------------------------|
E|----------------------------------------------------|

e|-----------15----------15-16-15-13----15-13---------|
B|--13-15-16----13-15-16-------------16-------16-15---|
G|----------------------------------------------------|
D|----------------------------------------------------|
A|----------------------------------------------------|
E|----------------------------------------------------|

e|-----------15----------15----------15----------15---|
B|--13-15-16----13-15-16----13-15-16----13-15-16------|
G|----------------------------------------------------|
D|----------------------------------------------------|
A|----------------------------------------------------|
E|----------------------------------------------------|

e|----------11---------11---------11---------11-------|
B|--9-11-13----9-11-13----9-11-13----9-11-13----------|
G|----------------------------------------------------|
D|----------------------------------------------------|
A|----------------------------------------------------|
E|----------------------------------------------------|

e|-----------13----------13----------13----------13---|
B|--12-13-15----12-13-15----12-13-15----12-13-15------|
G|----------------------------------------------------|
D|----------------------------------------------------|
A|----------------------------------------------------|
E|----------------------------------------------------|

e|--11---13---11---13---11--13--11--13--11h13p11h13p11h13p11h13p11h13p11h13p11\--|
B|-------------------------------------------------------------------------------|
G|-------------------------------------------------------------------------------|
D|-------------------------------------------------------------------------------|
A|-------------------------------------------------------------------------------|
E|-------------------------------------------------------------------------------|


Michael: Intro
e|-----------------------------------|
B|-----------------------------------|
G|-----------------------------------|
D|-----------------------------------|
A|-----3----5-6-------2--3-5-6-5-3---|
E|---3----------4--------------------|

e|-----------------------------------|
B|-----------------------------------|
G|-----------------------------------|
D|-----------------------------------|
A|-----3----5-6-------2--3-5-6-5-3---|
E|---3----------4--------------------|

e|-----------------------------------|
B|-----------------------------------|
G|-----5----7-8-------4--5-7-8-7-5---|
D|---5----------6--------------------|
A|-----------------------------------|
E|-----------------------------------|

e|-----------------------------------|
B|--------------9-7-9----------------|
G|-----5----7-8----------------------|
D|---5-------------------------------|
A|-----------------------------------|
E|-----------------------------------|

e|----------------------------------------------------------|
B|----------------------------------------------------------|
G|---4---5-7-5--7--5--7-5-7-5-7-5h7p5h7p5h7p5h7p5h7p5h7p5\--|
D|----------------------------------------------------------|
A|----------------------------------------------------------|
E|----------------------------------------------------------|



                Riff A. Play 4 times
Guitar 1:
e|---------------------------------------------------|
B|---------------------------------------------------|
G|---------------------------------------------------|
D|----------10p7---10p7---10p7---10p7---10p7-10p7----|
A|---/12\--------0------0------0------0--------------|
E|---/12\--------------------------------------------|

e|---------------------------------------------------|
B|---------------------------------------------------|
G|---------------------------------------------------|
D|---9p6---9p6---9p6---9p6---9p6-9p6-----------------|
A|-------0-----0-----0-----0-------------------------|
E|---------------------------------------------------|

e|---------------------------------------------------|
B|---------------------------------------------------|
G|---------------------------------------------------|
D|---9p5---9p5---9p5---9p5---9p5-9p5-----------------|
A|-------0-----0-----0-----0-------------------------|
E|---------------------------------------------------|

e|---------------------------------------------------|
B|---------------------------------------------------|
G|---------------------------------------------------|
D|---7p4-7p4---------7p4-7p4-------------------------|
A|-----------0-0-0-0---------0-0-0-0-----------------|
E|---------------------------------------------------|

Guitar 2:
e|---------------------------------------------------|
B|---------------------------------------------------|
G|----------9p5---9p5---9p5---9p5---9p5-9p5----------|
D|---------------------------------------------------|
A|---/12\-------0-----0-----0-----0------------------|
E|---/12\--------------------------------------------|

e|---------------------------------------------------|
B|---------------------------------------------------|
G|---8p4---8p4---8p4---8p4---8p4-8p4-----------------|
D|---------------------------------------------------|
A|-------0-----0-----0-----0-------------------------|
E|---------------------------------------------------|

e|---------------------------------------------------|
B|---------------------------------------------------|
G|---7p4---7p4---7p4---7p4---7p4-7p4-----------------|
D|---------------------------------------------------|
A|-------0-----0-----0-----0-------------------------|
E|---------------------------------------------------|

e|---------------------------------------------------|
B|---------------------------------------------------|
G|---5p2-5p2---------5p2-5p2-------------------------|
D|---------------------------------------------------|
A|-----------0-0-0-0---------0-0-0-0-----------------|
E|---------------------------------------------------|


                               Riff B.
Guitar 1:
e|---------------------------------------------------------------------|
B|---------------------------------------------------------------------|
G|---------------------------------------------------------------------|
D|---9-----10-----9-----10-----7-----8-----7---------2-5-7-5h7p5-------|
A|---7-----7------6-----6------5-----5-----4-----4-3-------------8-7---|
E|---------------------------------------------------------------------|
Guitar 2:
e|---------------------------------------------------------------------|
B|---------------------------------------------------------------------|
G|-------------------------------------------------------5-4h5p4-2-----|
D|---9-----10-----9-----10-----7-----8-----7---------2-5-----------5---|
A|---7-----7------6-----6------5-----5-----4-----4-3-------------------|
E|---------------------------------------------------------------------|


                             Riff C.
Guitar 1:
e|----------------------------------------------------------------|
B|----------------------------------------------------------------|
G|----------------------------------------------------------------|
D|---9---------9---------9-----10---------10---------10-----------|
A|-----7-7-7-7---7-7-7-7---7-7----7-7-7-7----7-7-7-7----7-7-------|
E|----------------------------------------------------------------|

e|----------------------------------------------------------------|
B|----------------------------------------------------------------|
G|----------------------------------------------------------------|
D|---9---------9---------9-----10---------10---------10-----------|
A|-----6-6-6-6---6-6-6-6---6-6----6-6-6-6----6-6-6-6----6-6-------|
E|----------------------------------------------------------------|

e|----------------------------------------------------------------|
B|----------------------------------------------------------------|
G|----------------------------------------------------------------|
D|---7---------7---------7-----8---------8---------8--------------|
A|-----5-5-5-5---5-5-5-5---5-5---5-5-5-5---5-5-5-5---5-5----------|
E|----------------------------------------------------------------|

e|----------------------------------------------------------------|
B|----------------------------------------------------------------|
G|----------------------------------------------------------------|
D|---7---------7---------7-----7---2-5-7-5h7p5--------------------|
A|-----4-4-4-4---4-4-4-4---4-4---3-------------8-7----------------|
E|----------------------------------------------------------------|

Guitar 2:
e|----------------------------------------------------------------|
B|----------------------------------------------------------------|
G|---9---------9---------9-----9---------9---------9--------------|
D|----------------------------------------------------------------|
A|-----7-7-7-7---7-7-7-7---7-7---7-7-7-7---7-7-7-7---7-7----------|
E|----------------------------------------------------------------|

e|----------------------------------------------------------------|
B|----------------------------------------------------------------|
G|---8---------8---------8-----8---------8---------8--------------|
D|----------------------------------------------------------------|
A|-----6-6-6-6---6-6-6-6---6-6---6-6-6-6---6-6-6-6---6-6----------|
E|----------------------------------------------------------------|

e|----------------------------------------------------------------|
B|----------------------------------------------------------------|
G|---7---------7---------7-----7---------7---------7--------------|
D|----------------------------------------------------------------|
A|-----5-5-5-5---5-5-5-5---5-5---5-5-5-5---5-5-5-5---5-5----------|
E|----------------------------------------------------------------|

e|----------------------------------------------------------------|
B|----------------------------------------------------------------|
G|---6---------6---------6-----6-------5-4h5p4-2------------------|
D|---------------------------------2-5-----------5----------------|
A|-----4-4-4-4---4-4-4-4---4-4---3--------------------------------|
E|----------------------------------------------------------------|


                               Chorus:
Guitar 1
e|----------------------------------------------------------------|
B|----------------------------------------------------------------|
G|---16--14--12-14-12-11---9-11-9-/14--12--11-12-11-9-------------|
D|----------------------------------------------------------------|
A|----------------------------------------------------------------|
E|----------------------------------------------------------------|

e|----------------------------------------------------------------|
B|----------------------------------------------------------------|
G|---9-9-11-12-9-/16--14--12-14-12-11----12-11--------------------|
D|---------------------------------------------12^----------------|
A|---------------------------------------------------12-----------|
E|----------------------------------------------------------------|

Harmony:
e|---19--17--15-17-15-14---12-14-12-/17--15--14-15-14-12----------|
B|----------------------------------------------------------------|
G|----------------------------------------------------------------|
D|----------------------------------------------------------------|
A|----------------------------------------------------------------|
E|----------------------------------------------------------------|

e|---12-12-14-15-12-/19--17--15-17-15-14----15-14-----------------|
B|------------------------------------------------15^-------------|
G|------------------------------------------------------14--------|
D|----------------------------------------------------------------|
A|----------------------------------------------------------------|
E|----------------------------------------------------------------|


Guitar 2:
e|----------------------------------------------------------------|
B|----------------------------------------------------------------|
G|----------------------------------------------------------------|
D|---5---------------4-----------------9----------------7---------|
A|---3---------------2-----------------7----------------4---------|
E|----------------------------------------------------------------|

e|----------------------------------------------------------------|
B|----------------------------------------------------------------|
G|----------------------------------------------------7-6---------|
D|---5---------------4----------------2-------------------7-------|
A|---3---------------2----------------0---------------------7-5---|
E|----------------------------------------------------------------|

e|----------------------------------------------------------------|
B|----------------------------------------------------------------|
G|----------------------------------------------------------------|
D|---5---------------4-----------------9----------------7---------|
A|---3---------------2-----------------7----------------4---------|
E|----------------------------------------------------------------|

e|----------------------------------------------------------------|
B|----------------------------------------------------------------|
G|----------------------------------------------------7-6---------|
D|---5---------------4----------------2-------------------7-------|
A|---3---------------2----------------0---------------------7-5---|
E|----------------------------------------------------------------|


                           Riff D
Guitar 1:
e|-------------------------------------------------------------|
B|-------------------------------------------------------------|
G|-------------------------------------------------------------|
D|-------------------------------------------------------------|
A|---2-----------------2-2-2-2-2------------------2-2-2-2-2----|
E|---0-----------------0-0-0-0-0------------------0-0-0-0-0----|

e|-------------------------------------------------------------|
B|-------------------------------------------------------------|
G|-------------------------------------------------------------|
D|-------------------------------------------------------------|
A|------------------2-2-2-2-2--2--2-2-2-2-2--2--2-2-2-2-2------|
E|------------------0-0-0-0-0--0--0-0-0-0-0--0--0-0-0-0-0------|

Guitar 2:
e|-------------------------------------------------------------|
B|-------------------------------------------------------------|
G|-------------------------------------------------------------|
D|------6p5h6p5---5---------------6p5h6p5---9------------------|
A|---2----------7---6--2-2-2-2-2----------7---10--2-2-2-2-2----|
E|---0-----------------0-0-0-0-0------------------0-0-0-0-0----|

e|-------------------------------------------------------------|
B|-------------------------------------------------------------|
G|-------------------------------------------------------------|
D|---6p5h6p5---5-----------------------------------------------|
A|-----------7---6--2-2-2-2-2--2--2-2-2-2-2--2--2-2-2-2-2------|
E|------------------0-0-0-0-0--0--0-0-0-0-0--0--0-0-0-0-0------|


                                     -------
                                      Solos
                                     -------

First Solo: Christopher 

e|---------12-11~----11-10--8h10p8-7h8p7-------------------------------------|
B|---/10~----------9---------------------10-9-10-----------------------------|
G|---------------------------------------------------------------------------|
D|---------------------------------------------------------------------------|
A|---------------------------------------------------------------------------|
E|---------------------------------------------------------------------------|

e|---22b^24~--22b^24-22b^23~-----23-22--20b^22-20-19-19b^20bv19-17v----------|
B|----------------------------22---------------------------------------------|
G|---------------------------------------------------------------------------|
D|---------------------------------------------------------------------------|
A|---------------------------------------------------------------------------|
E|---------------------------------------------------------------------------|



Second Solo: Michael

e|---21b^25v21~---19----------------17-17b^~---------------------|
B|-------------------19----------17------------------------------|
G|----------------------17----17---------------------------------|
D|-------------------------19------------------------------------|
A|---------------------------------------------------------------|
E|---------------------------------------------------------------|

e|---------------------------------------------------------------|
B|---15b^~--17-18-17h18p17--15-17-15-----------------------------|
G|-----------------------------------17-16-14--------------------|
D|---------------------------------------------------------------|
A|---------------------------------------------------------------|
E|---------------------------------------------------------------|

e|-12p5h8h12o5h8h12p5h8h12p5h8h12p5h8h12p5h8h13p5h8h13p5h8h13p5h8h13p5h8h13--|
B|---------------------------------------------------------------------------|
G|---------------------------------------------------------------------------|
D|---------------------------------------------------------------------------|
A|---------------------------------------------------------------------------|
E|---------------------------------------------------------------------------|

e|--5h8h15p7h10h15p7h10h15p7h10h15p7h10h15p7h10h17p7h10h17p7h10h17p7h10h17p7-|
B|---------------------------------------------------------------------------|
G|---------------------------------------------------------------------------|
D|---------------------------------------------------------------------------|
A|---------------------------------------------------------------------------|
E|---------------------------------------------------------------------------|

e|--h10h17p7h10h20p19h20p19h20p15h20p17h20p13h20p15h20p13h20p15h20p13h20p12--|
B|---------------------------------------------------------------------------|
G|---------------------------------------------------------------------------|
D|---------------------------------------------------------------------------|
A|---------------------------------------------------------------------------|
E|---------------------------------------------------------------------------|

e|--p10-12-13-12h13p12-10-12-10-8-10-8h10p8p7-8-7p5--------------------------|
B|--------------------------------------------------10b^12~------------------|
G|---------------------------------------------------------------------------|
D|---------------------------------------------------------------------------|
A|---------------------------------------------------------------------------|
E|---------------------------------------------------------------------------|



Third Solo: Christopher

e|-------------------------------------15b^~--17b^~--18b^~--22b^v------------|
B|--------17-16~-----16-15~--13----------------------------------------------|
G|---14~----------14------------14~------------------------------------------|
D|---------------------------------------------------------------------------|
A|---------------------------------------------------------------------------|
E|---------------------------------------------------------------------------|



Fourth Solo: Christopher Lead

e|---15b^17~--18-17h18p17-15-------------15-----------17-15h17p15-13-------|
B|---------------------------17~---17-18----18b^20~------------------15~---|
G|-------------------------------------------------------------------------|
D|-------------------------------------------------------------------------|
A|-------------------------------------------------------------------------|
E|-------------------------------------------------------------------------|

e|---13-------------------------10-12-13-12-10h12p10----10-----------------|
B|------13-13b^15bv13-13b^15~------------------------13----13-10-13-10~----|
G|-------------------------------------------------------------------------|
D|-------------------------------------------------------------------------|
A|-------------------------------------------------------------------------|
E|-------------------------------------------------------------------------|

e|---15-14-------------------|
B|---------15----------------|
G|------------14-12-11-------|
D|---------------------------|
A|---------------------------|
E|---------------------------|

e|--------------------------------------12-10-8----8-------------------------|
B|---------8-6-5---6-5-----11-10-8--------------11---11-10-8-11-10-8---------|
G|---------------7-----7-5---------10-9------------------------------10-9----|
D|---5-7-8-------------------------------------------------------------------|
A|---------------------------------------------------------------------------|
E|---------------------------------------------------------------------------|

e|------------------------------------------------12-14-12-------12----------|
B|------------------------------------------13-15----------15-13----15-13-11-|
G|------------------------12-------12-14-15----------------------------------|
D|------12-14-15-12-14-15----14-15-------------------------------------------|
A|---15----------------------------------------------------------------------|
E|---------------------------------------------------------------------------|

e|-------------------------------------17-20-17------------------------------|
B|---15-13-11----13-11-------13b^15~------------20-18-17b^-17~---------------|
G|------------14-------14-12-------------------------------------------------|
D|---------------------------------------------------------------------------|
A|---------------------------------------------------------------------------|
E|---------------------------------------------------------------------------|


e|---15-14-12----------17-15-14----------15-14-12----------------------------|
B|------------15-13-12----------17-15-14----------15-13-12-------------------|
G|---------------------------------------------------------14-12-11----------|
D|------------------------------------------------------------------14-12-10-|
A|---------------------------------------------------------------------------|
E|---------------------------------------------------------------------------|

e|---------------------------------------------------------------------------|
B|---------------------------------------------------------------------------|
G|---12-11-9---------14-12-11------------------------------------------------|
D|-----------12-11-9----------14-12-10---------------------------------------|
A|--------------------------------------12^~---------------------------------|
E|---------------------------------------------------------------------------|

Guitar 2 rhythm:
e|----------------------------------------------------------------|
B|----------------------------------------------------------------|
G|----------------------------------------------------------------|
D|---3---------------5-----------------5----------------7---------|
A|---1---------------3-----------------3----------------5---------|
E|----------------------------------------------------------------|

e|----------------------------------------------------------------|
B|----------------------------------------------------------------|
G|------------------------------------------------12-11-----------|
D|---3---------------5----------------7----------------12---------|
A|---1---------------3----------------5------------------12-10-9--|
E|----------------------------------------------------------------|

e|----------------------------------------------------------------|
B|----------------------------------------------------------------|
G|----------------------------------------------------------------|
D|---3---------------5-----------------5----------------7---------|
A|---1---------------3-----------------3----------------5---------|
E|----------------------------------------------------------------|

e|----------------------------------------------------------------|
B|----------------------------------------------------------------|
G|----------------------------------------------------------------|
D|---3---------------5-----------------7--------------------------|
A|---1---------------3-----------------5--------------------------|
E|----------------------------------------------------------------|



Fifth Solo: Michael Lead

e|--12-----12-------14-----14-------15-----15-------17-----17----------------|
B|--15b^~--15b^~----17b^~--17b^~----18b^~--18b^~----20b^~--20b^~-------------|
G|---------------------------------------------------------------------------|
D|---------------------------------------------------------------------------|
A|---------------------------------------------------------------------------|
E|---------------------------------------------------------------------------|

e|---22b^v^v^v^v^-22-22--------|
B|-----------------------------|
G|-----------------------------|
D|-----------------------------|
A|-----------------------------|
E|-----------------------------|

e|--/19-19-19-19-19-19-19-19-19-19-17-15-14-17-15-14-------------------------|
B|---------------------------------------------------17-15-13-17-15-13-15----|
G|---------------------------------------------------------------------------|
D|---------------------------------------------------------------------------|
A|---------------------------------------------------------------------------|
E|---------------------------------------------------------------------------|

e|---------------------------------------------------------------------------|
B|--15-13-12-15-13-12--------------------------------------------------------|
G|--------------------14-12-11-14-12-11--------------------------------------|
D|--------------------------------------14-12-10-14-12-10--------------------|
A|--------------------------------------------------------14-12-10-14-12-10--|
E|---------------------------------------------------------------------------|

e|-------/19-17~-14-15-17-17---19bv17-15--14-14-14-15-17-17b^19~-------------|
B|---------------------------------------------------------------------------|
G|---------------------------------------------------------------------------|
D|---------------------------------------------------------------------------|
A|--14~~---------------------------------------------------------------------|
E|---------------------------------------------------------------------------|

e|---22-19-17-15-14-15-14h15p14----------------------------------------------|
B|------------------------------15-15/17----------------------------------------|
G|---------------------------------------------------------------------------|
D|---------------------------------------------------------------------------|
A|---------------------------------------------------------------------------|
E|---------------------------------------------------------------------------|

e|---15p12----12-------------------------------------------------------------|
B|---------15----15-12-15-12----12-------------------------------------------|
G|---------------------------14----14-12-------------------------------------|
D|---------------------------------------14----------------------------------|
A|---------------------------------------------------------------------------|
E|---------------------------------------------------------------------------|

Guitar rhythm during slow part of solo:
e|----------------------------------------------------------------|
B|----------------------------------------------------------------|
G|----------------------------------------------------------------|
D|---5---------------4-----------------9----------------7---------|
A|---3---------------2-----------------7----------------4---------|
E|----------------------------------------------------------------|

e|----------------------------------------------------------------|
B|----------------------------------------------------------------|
G|----------------------------------------------------7-6---------|
D|---5---------------4----------------2-------------------7-------|
A|---3---------------2----------------0---------------------7-5---|
E|----------------------------------------------------------------|

===============================================================================

            
            
Suggest correction
Creating personal tab
Creating personal tab
You can edit any tab online and save it as your Personal.

You can edit, replace or remove any tab part or add personal notes – all changes will be seen only by you.

Personal tabs can be accessed anytime from any device, even offline.
Learn more »
comments
print report bad tab
3 comments total.
0 reply
[ LiAm ] 436 Apr 05, 2008 06:06 PM

some of the riff b chords are wrong

0 reply
VAGUEdemiseSNGR 10 Jul 07, 2008 08:41 AM

u said the tuning was C but i think some of it is C# and some of it is C. and where are the solos? theres like eighty of em in this song and im having a hell of a time figuring em out. dead on tho.

0 reply
A7x182rhoads 10 May 10, 2009 05:02 AM

nice job

guest
You may want to rate the tab now too:
select rating
Wanna post a correction for this tab? Suggest correction