Oops, an error
Loading. Please wait.

Cancer tab

version 1
version 1

Whole song

Interactive

490 views 15 this week
no commentswrite comment
1 2 3 4 5
3 more votes to show rating
add to favorites
×
Save as Personal and add changes to this tab that will be seen only by you. Learn more ›
×
You can save this tab as Personal to edit and correct it or add notes. All changes will be seen only by you. Learn more »
launch autoscroll
font size
0
reset
how to read this tab
guitar tuner
edit
Autoscroll
slow
fast
+/-
esc
set tempo
stop
Author
Difficulty
Tuning: G# F# B E G# C#  (C# tuning with low G# string)

[Intro]
C#|---------------------------------|----------------------------------|
G#|---------------------------------|----------------------------------|
 E|---------------------------------|----------------------------------|
 B|---------------------------------|----------------------------------| play 4x
F#|-0-0-0-0---0---0---0---0---0-----|----0-0-0-0-0---0---0---0-0-0-0---|
G#|-0-0-0-0---0---0---0---0---0---0-|----0-0-0-0-0---0---0---0-0-0-0---|

[Verse]
C#|---------------------------------------------|
G#|---------------------------------------------|
 E|---------------------------------------------|
 B|-------------------------------17------------|
F#|------14---------------14-0-14----16\-----10-|
G#|-0-12----12--0--x-0-12----------------0-8----|

C#|-----------------------------------------------------|
G#|-----------------------------------------------------|
 E|-----------------------------------------------------|
 B|--------------------------------------17-16\------12-|
F#|-------------14---------------14-0-14--------0-10----|
G#|-12--0--0-12----12--0--x-0-12------------------------|
                                                          __
C#|-----------------------------------------------------|   |
G#|-----------------------------------------------------|   |
 E|-----------------------------------------------------|   |
 B|-------------------------------17--------------------|   |
F#|------14---------------14-0-14----16\-----10---------|   |
G#|-0-12----12--0--x-0-12----------------0-8----0-------|   |
                                                            play 2x
C#|-----------------------------------------------------|   |
G#|-----------------------------------------------------|   |
 E|-----------------------------------------------------|   |
 B|-------------------------------17--------------------|   |
F#|------14---------------14-0-14----16\-----10/--16-17-|   |
G#|-0-12----12--0--x-0-12----------------0-8----0-------| __|

C#|-----------------------------------------------------|
G#|-----------------------------------------------------|
 E|-----------------------------------------------------|
 B|-------------------------------17--------------------|
F#|------14---------------14-0-14----16\-----10---------|
G#|-0-12----12--0--x-0-12----------------0-8----0-------|

C#|-----------------------------------------------------|
G#|-----------------------------------------------------|
 E|-----------------------------------------------------|
 B|-------------------------------17--------------------|
F#|------14---------------14-0-14----16\-----10---------|
G#|-0-12----12--0--x-0-12----------------0-8----1b2-----|

[Pre-Chorus]
C#|---------------------------------|-------------------------------------|
G#|---------------------------------|-------------------------------------|
 E|---------------------------------|-------------------------------------|
 B|---------------------------------|-------------------------------------|
F#|-0-0-----------------------------|-----0-----0-----0---------0-0-0-0---|
G#|-0-0-----------------------------|-----0-----0-----0---------0-0-0-0---|
                                                                |___|   
C#|---------------------------------|-----------------------------³---------|
G#|---------------------------------|---------------------------------------|
 E|---------------------------------|---------------------------------------|
 B|---------------------------------|---------------------------------------|
F#|-0-0-0-0-----0-----0-----0-0-----|-----0-----0---------------0-0-0-0-0-0-|
G#|-0-0-0-0-----0-----0-----0-0-----|-----0-----0-----0-hold----0-0-0-0-0-0-|
                                                                |___| |___|
[Chorus]                                                          ³     ³
C#|----------------------------------------------|----------------------------------------------|
G#|----------------------------------------------|----------------------------------------------|
 E|-11-11---11-11-11---11-11-11---11-11-11-11-11-|11-11---11-11-11---11--9--9--9--9--9--9--9--9-|
 B|--9--9----9--9--9----9--9--9----9--9--9--9--9-|-9--9----9--9--9----9--9--9--9--9--9--9--9--9-|
F#|-10-10---10-10-10---10-10-10---10-10-10-10-10-|10-10---10-10-10---10-10-10-10-10-10-10-10-10-|
G#|----------------------------------------------|----------------------------------------------|

C#|----------------------------------------------|----------------------------------------------|
G#|----------------------------------------------|----------------------------------------------|
 E|--7--7----7--7--7----7--7--7----7--7--7--7--7-|-6--6----6--6--6----6--6--6--6--6--6--6--6--6-|
 B|--7--7----7--7--7----7--7--7----7--7--7--7--7-|-7--7----7--7--7----7--7--7--7--7--7--7--7--7-|
F#|--9--9----9--9--9----9--9--9----9--9--9--9--9-|-9--9----9--9--9----9--9--9--9--9--9--9--9--9-|
G#|----------------------------------------------|----------------------------------------------|

C#|----------------------------------------------|----------------------------------------------|
G#|----------------------------------------------|----------------------------------------------|
 E|-11-11---11-11-11---11-11-11---11-11-11-11-11-|11-11---11-11-11---11-11-11-11-11-11-11-11-11-|
 B|-12-12---12-12-12---12-12-12---12-12-12-12-12-|14-14---14-14-14---14-12-12-12-12-12-12-12-12-|
F#|-14-14---14-14-14---14-14-14---14-14-14-14-14-|14-14---14-14-14---14-14-14-14-14-14-14-14-14-|
G#|----------------------------------------------|----------------------------------------------|

C#|----------------------------------------------|----------------------------------------------|
G#|----------------------------------------------|----------------------------------------------|
 E|--9--9----9--9--9----9--9--9----9--9--9--9--9-|-9--9----9--9--9----9--9--9--9--9--9--9--9--9-|
 B|-11-11---11-11-11---11-11-11---11-11-11-11-11-|12-12---12-12-12---12-11-11-11-11--9--9--9--9-|
F#|-12-12---12-12-12---12-12-12---12-12-12-12-12-|12-12---12-12-12---12-12-12-12-12-12-12-12-12-|
G#|----------------------------------------------|----------------------------------------------|

[Bridge]
C#|---------------------------------|----------------------------------|
G#|---------------------------------|----------------------------------|
 E|---------------------------------|----------------------------------|
 B|---------------------------------|----------------------------------| play 4x
F#|-0-0-0-0---0---0---0---0---0-----|----0-0-0-0-0---0---0---0-0-0-0---|
G#|-0-0-0-0---0---0---0---0---0---0-|----0-0-0-0-0---0---0---0-0-0-0---|


[Verse]
same as first verse


[Interlude]
C#|-----|-----|-----|-----|-----|-----|-----|-----|
G#|-----|-----|-----|-----|-----|-----|-----|-----| only vocals, 
 E|-----|-----|-----|-----|-----|-----|-----|-----| bass and drums
 B|-----|-----|-----|-----|-----|-----|-----|-----|
F#|-----|-----|-----|-----|-----|-----|-----|-----|
G#|-----|-----|-----|-----|-----|-----|-----|-----|

C#|---------------------------------|-----------------------------------|
G#|----- listen to the song to -----|-----------------------------------|
 E|----- find the right rythm! -----|-----------------------------------|
 B|---------------------------------|-----------------------------------| play 4x
F#|-0-----0---0---0-----0---0-----0-|--0-----0---0---0-----0---12-12-12-|
G#|-0-----0---0---0-----0---0-----0-|--0-----0---0---0-----0---10-10-10-|

[Breakdown]                                                            __
C#|---------------------------------|--------------------------------|   |
G#|---------------------------------|--------------------------------|   |
 E|---------------------------------|--------------------------------|   |
 B|---------------------------------|---------0-------5-----------0--|   |
F#|-2-------------------------------|-------------------------4------|   |
G#|-----0-------------------7---0---|-------------0-------0----------|   |
                                                                         |
C#|---------------------------------|--------------------------------|   |
G#|---------------------------------|--------------------------------|   |
 E|---------------------------------|--------------------------------|   |
 B|---------------------------------|---------0-------7---4-------0--|   |
F#|-2-------------------------------|-------------------------4------|   |
G#|-----0-------------------7---0---|-------------0------------------|   |
                                                                         play 2x
C#|---------------------------------|--------------------------------|   |
G#|---------------------------------|--------------------------------|   |
 E|-11--11--11--11--11--11--11--11--|11--11--11--11--11--11--11--11--|   |
 B|-12--12--12--12--12--12--12--12--|12--12--12--12--12--12--12--12--|   |
F#|---------------------------------|--------------------------------|   |
G#|---------------------------------|--------------------------------|   |
                                                                         |
C#|---------------------------------|--------------------------------|   |
G#|---------------------------------|--------------------------------|   |
 E|-11--11--11---9---9---9--12--12--|12--11--11--11--11--11--11--11--|   |
 B|-12--12--12--11--11--11--14--14--|14---9---9---9--12--12--12--12--|   |
F#|---------------------------------|--------------------------------|   |
G#|---------------------------------|--------------------------------| __|

[Bridge]
C#|------------------------------------|---------------------------------|
G#|------------------------------------|---------------------------------|
 E|------------------------------------|---------------------------------|
 B|------------------------------------|---------------------------------|
F#|------------------------------------|-------------------------------9-|
G#|-12-12-12-0---0---0---0-0---0---0-0-|---0---0-0---0---0---0-0---0-7---|

C#|------------------------------------|------------------------------------|
G#|------------------------------------|------------------------------------|
 E|------------------------------------|------------------------------------|
 B|------------------------------------|-----------------9----------12---11-|
F#|------------------------------------|-------------------10-9-------------|
G#|-12-12-12-0---0---0---0-0---0---0-0-|---0---0-0---0----------0-7----0----|

C#|------------------------------------|---------------------------------|
G#|------------------------------------|---------------------------------|
 E|------------------------------------|---------------------------------|
 B|------------------------------------|---------------------------------|
F#|------------------------------------|-------------------------------9-|
G#|-12-12-12-0---0---0---0-0---0---0-0-|---0---0-0---0---0---0-0---0-7---|

C#|------------------------------------|---------------------------------|
G#|------------------------------------|---------------------------------|
 E|------------------------------------|---------------------------------|
 B|------------------------------------|---------------------------------|
F#|------------------------------------|---------------------------------|
G#|-12-12-12-0---0---0---0-0---0---0-0-|---0---0-0---0-------------------|


-----[Chorus]-----
same as first chorus


[Outro/Pre-Chorus]                                                         __
C#|---------------------------------|------------------------------------|   |
G#|---------------------------------|------------------------------------|   |
 E|---------------------------------|------------------------------------|   |
 B|---------------------------------|------------------------------------|   |
F#|-0-0-----------------------------|-----0-----0-----0--------0-0-0-0---|   |
G#|-0-0-----------------------------|-----0-----0-----0--------0-0-0-0---|   |
                                                               |___|         play 2x
C#|---------------------------------|----------------------------³-------|   |
G#|---------------------------------|------------------------------------|   |
 E|---------------------------------|------------------------------------|   |
 B|---------------------------------|------------------------------------|   |
F#|-0-0-0-0-----0-----0-----0-0-----|-----0-----0----------------0-0-0-0-|   |
G#|-0-0-0-0-----0-----0-----0-0-----|-----0-----0-----0----------0-0-0-0-| __|

C#|----------|
G#|----------|
 E|--break---|
 B|----------|
F#|----------|
G#|----------|
                                                                           __
C#|---------------------------------|------------------------------------|   |
G#|---------------------------------|------------------------------------|   |
 E|---------------------------------|------------------------------------|   |
 B|---------------------------------|------------------------------------|   |
F#|-0-0-----------------------------|-----0-----0-----0--------0-0-0-0---|   |
G#|-0-0-----------------------------|-----0-----0-----0--------0-0-0-0---|   |
                                                               |___|         play 2x
C#|---------------------------------|----------------------------³-------|   |
G#|---------------------------------|------------------------------------|   |
 E|---------------------------------|------------------------------------|   |
 B|---------------------------------|------------------------------------|   |
F#|-0-0-0-0-----0-----0-----0-0-----|-----0-----0----------------0-0-0-0-|   |
G#|-0-0-0-0-----0-----0-----0-0-----|-----0-----0-----0----------0-0-0-0-| __|

************************************

| /   Slide up
| \   Slide down
| |_| Triplet
   ³  
************************************

            
            
Suggest correction
Creating personal tab
Creating personal tab
You can edit any tab online and save it as your Personal.

You can edit, replace or remove any tab part or add personal notes – all changes will be seen only by you.

Personal tabs can be accessed anytime from any device, even offline.
Learn more »
Give kudos to tab author, rate the tab!
1 2 3 4 5
comments
print report bad tab
guest
You may want to rate the tab now too:
select rating
Wanna post a correction for this tab? Suggest correction