Oops, an error
Loading. Please wait.

Choo Choo tab

version 3
version 3

Whole song

Interactive

15,018 views 1 this week
6 commentsread comments
1 2 3 4 5
x 9
add to favorites
×
Save as Personal and add changes to this tab that will be seen only by you. Learn more ›
×
You can save this tab as Personal to edit and correct it or add notes. All changes will be seen only by you. Learn more »
launch autoscroll
font size
0
reset
how to read this tab
guitar tuner
edit
Autoscroll
slow
fast
+/-
esc
set tempo
stop
Author
-----------------------------------------------------------------------------
                            Choo Choo - Arctic Monkeys
-----------------------------------------------------------------------------
Tabbed by: kievo
Email: Kevin_Moyaert@hotmail.com

Tuning: Standard
                                          x28
e|-9-9-------9-9-------|----9-9-----------|  \
B|-9-9-------9-9-------|----9-9-----------|   Guitar 1
G|-9-9-------9-9-------|o---9-9----------o|  /
D|---------------------|o----------------o|  \
A|---------------------|----9-7-8-7-------|   Guitar 2
E|-----------------14\-|--9---------9-7---|  /

Guitar 1        x3
e|--------------|---------------------------|
B|--------------|---------------------------|
G|o------------o|---------------------------| 
D|o-1111111111-o|-99999999-1010101010101010-|
A|--1111111111--|-99999999-1010101010101010-|
E|--9-9-9-9-9---|-77777777-8-8-8-8-8-8-8-8--|

Guitar 1        x3
e|--------------|---------------------------|
B|--------------|---------------------------|
G|o------------o|---------------------------| 
D|o-1111111111-o|-99999999-1010101010101010-|
A|--1111111111--|-99999999-1010101010101010-|
E|--9-9-9-9-9---|-77777777-8-8-8-8-8-8-8-8--|

Guitar 1                     x4
e|---------------------------|-----------------------------------------|
B|---------------------------|-----------------------------------------|
G|o--------11-9-9999--------o|-----------------------------------------|
D|o-1111---11-9-9999--------o|-----------------------------------------|
A|--1111-x-9--7-7777---------|-----------------------------------------|
E|--9-9--x-------------------|-----------------------------------------|

Guitar 2                     x4                    (not sure about this part)
e|---------------------------|-----------------------------------------|
B|---------------------------|-----------------------------------------|
G|o-------------------------o|-----------------------------------------|
D|o-------------------------o|-------------------------------7/11------|
A|---------9--7-777-9-7------|---------7-9-9-9b-7~--7/11-7/9-----------|
E|--9-9-----------------9-7--|-9---7h9----------------------------14\9-|

                    x16
e|----9-9-----------|  \
B|----9-9-----------|   Guitar 1
G|o---9-9----------o|  /
D|o----------------o|  \
A|----9-7-8-7-------|   Guitar 2
E|--9---------9-7---|  /

Guitar 1        x3
e|--------------|---------------------------|
B|--------------|---------------------------|
G|o------------o|---------------------------| 
D|o-1111111111-o|-99999999-1010101010101010-|
A|--1111111111--|-99999999-1010101010101010-|
E|--9-9-9-9-9---|-77777777-8-8-8-8-8-8-8-8--|

Guitar 1        x3
e|--------------|---------------------------|
B|--------------|---------------------------|
G|o------------o|---------------------------| 
D|o-1111111111-o|-99999999-1010101010101010-|
A|--1111111111--|-99999999-1010101010101010-|
E|--9-9-9-9-9---|-77777777-8-8-8-8-8-8-8-8--|

Guitar 1                     x4
e|---------------------------|------------------------|
B|---------------------------|------------------------|
G|o--------11-9-9999--------o|------------------------|
D|o-1111---11-9-9999--------o|-11---11---11-----------|
A|--1111-x-9--7-7777---------|-11---11---11-----------|
E|--9-9--x-------------------|-9----9----9------------|

Guitar 2                     x4                         
e|---------------------------|------------------------|
B|---------------------------|------------------------|
G|o-------------------------o|------------------------|
D|o-------------------------o|------------------------|
A|---------9--7-777-9-7------|---------------(slides)-|
E|--9-9-----------------9-7--|-9----9----9------------|

Guitar 2 (solo)
e|-----------------------------------------------------------------------|
B|-----------------------------------------------------------------------|
G|-----------------------------------------------------------------------|
D|-----------------------------------------------------------------------|
A|---7-9-10-11---7-9-10-11---------7---------------7----------7-9-10-11--|
E|-9-----------7-----------9-7h8h9---9-7h9-9-7h8h9---9-7h9--9------------|

e|--------------------------------------------------------|
B|--------------------------------------------------------|
G|------9-11b-11-9---------9-11-9-11-9-11b-11b-11b-11b-9~-|
D|-9-11------------11-9-11--------------------------------|
A|--------------------------------------------------------|
E|--------------------------------------------------------|

Guitar 1
e|------------------------------------------------------------|
B|------------------------------------------------------------|
G|------11-9--------------------------11-9--------------------|
D|-1111-11-9---------------------1111-11-9--------------------|
A|-1111-9--7---------------------1111-9--7--------------------|
E|-9-9---------------------------9-9--------------------------|

Guitar 2
e|------------------------------------------------------------|
B|------------------------------------------------------------|
G|--------------9-11-11b-11b-11b-11b-9-----11-9---------9-----|
D|-----------11---------------------------------11-9-11---11--|
A|------------------------------------------------------------|
E|------------------------------------------------------------|

Guitar 1
e|-----------------------------------------------------------------|
B|-----------------------------------------------------------------|
G|------11-9-------------------------------11-9--------------------|
D|-1111-11-9--------------------------1111-11-9--------------------|
A|-1111-9--7--------------------------1111-9--7--------------------|
E|-9-9--------------------------------9-9--------------------------|

Guitar 2
e|-----------------------------------------------------------------|
B|-----------------------------------------------------------------|
G|----------------------------------9-11b-9--------9---------9-----|
D|-----------------------------9-11---------11--11---11-9-11---11--|
A|-----------9-7-9-7-9-99-9/11-------------------------------------|
E|-----------------------------------------------------------------|

Guitar 1                     
e|---------------------------------------------------------|
B|---------------------------------------------------------|
G|o--------11-9-9999---------------11-9-9-9-9-9------------|
D|o-1111---11-9-9999--------1111---11-9-9-9-9-9------------|
A|--1111-x-9--7-7777--------1111-x-9--7-7-7-7-7------------|
E|--9-9--x------------------9-9--x-------------------------|

Guitar 2                                             
e|---------------------------------------------------------|
B|---------------------------------------------------------|
G|o----------------------------------------------9---------|
D|o-------------------------------------11-11-11---11-9-11-|
A|---------9--7-777-9-7------------9--7--------------------|
E|--9-9-----------------9-7-9-9----------------------------|

Guitar 1                     x2
e|---------------------------|---------------------0-----|
B|---------------------------|---------------------0-----|
G|o--------11-9-9999--------o|---------------------0-----|
D|o-1111---11-9-9999--------o|-11---11---11---11---0-----|
A|--1111-x-9--7-7777---------|-11---11---11---11---0-----|
E|--9-9--x-------------------|-9----9----9----9----0-----|

Guitar 2                     x2                         
e|---------------------------|--------------------------|
B|---------------------------|--------------------------|
G|o-------------------------o|--------------------------|
D|o-------------------------o|--------------------------|
A|---------9--7-777-9-7------|--------------------------|
E|--9-9-----------------9-7--|-9----9----9----9---------|

I hope this helped
I’m not sure about the slides and the last chord though

| b  bend (1/2 step)
| /  slide up
| \  slide down
| h  hammer-on
| ~  vibrato
| x  Mute note
=============================================================================

            
            
Suggest correction
Creating personal tab
Creating personal tab
You can edit any tab online and save it as your Personal.

You can edit, replace or remove any tab part or add personal notes – all changes will be seen only by you.

Personal tabs can be accessed anytime from any device, even offline.
Learn more »
comments
print report bad tab
6 comments total. Showing first comments.
0 reply
mrsensible1234 31 Oct 31, 2007 01:02 PM

gd tab

0 reply
jackchappers 79 Apr 07, 2008 11:59 AM

The last chord is all open strings ;]

0 reply
Live4ever1234 751 Dec 06, 2009 01:06 PM

Amazing song and great tab.

guest
You may want to rate the tab now too:
select rating
Wanna post a correction for this tab? Suggest correction