Oops, an error
Loading. Please wait.

Curtains Close bass

version 1
version 1

Whole song

Interactive

1,886 views 1 this week
2 commentsread comments
1 2 3 4 5
1 last vote to show rating
add to favorites
×
Save as Personal and add changes to this tab that will be seen only by you. Learn more ›
×
You can save this tab as Personal to edit and correct it or add notes. All changes will be seen only by you. Learn more »
launch autoscroll
font size
0
reset
guitar tuner
edit
Autoscroll
slow
fast
+/-
esc
set tempo
stop
Difficulty
VERSE
G|-------------------|
D|-------------------|
A|---------1-1-1/3-3-|
E|-3-3-333-----------| x8

CHORUS
G|--------------------------|
D|--------------------------|
A|--------------------------|
E|-----------3-3-333-33-333-|

G|--------------------------|
D|--------------------------|
A|-3-6--3-6-----------------|
E|-----------3-3-333-33-333-|

G|--------------------------|
D|--------------------------|
A|-3-6--3-6-----------------|
E|-----------3-3-333-00-000-|

G|----------------|
D|----------------|
A|-3-3-333-22-222-|
E|----------------|

SOLO
G|---------------------------------|
D|---------------------------------|
A|---------------------------------|
E|-3-3-3-3-3-3-3-3-3-3-3-3-3-3-3-3-|

G|---------------------------------|
D|---------------------------------|
A|-------------------------11113333|
E|-3-3-3-3-3-3-3-3-3-3-3-3---------|

ALT. VERSE
G|-------------------|
D|-------------------|
A|---------1-1-1/3-3-|
E|-3-3-333-----------| x3

G|-------------------|
D|-------------------|
A|-------------------|
E|-3----------333333-|

CHORUS: x1

BRIDGE: x1

ALT. CHORUS
G|--------------------------|
D|--------------------------|
A|--------------------------|
E|-----------3-3-333-33-333-|

G|--------------------------|
D|--------------------------|
A|-3-6--3-6-----------------|
E|-----------3-3-333-33-333-|

G|--------------------------|
D|--------------------------|
A|-3-6--3-6-----------------|
E|-----------3-3-333-00-000-|

G|----------------------|
D|----------------------|
A|-3-3-333-2x-------5~~-|
E|----------------------|

            
            
Suggest correction
Creating personal tab
Creating personal tab
You can edit any tab online and save it as your Personal.

You can edit, replace or remove any tab part or add personal notes – all changes will be seen only by you.

Personal tabs can be accessed anytime from any device, even offline.
Learn more »
Give kudos to tab author, rate the tab!
1 2 3 4 5
comments
print report bad tab
2 comments total.
+1 reply
hayward5596 10 Mar 10, 2008 07:42 PM

the bass doesn't start until after the bridge part in the intro

0 reply
IndieJoe 1,997 Apr 03, 2009 01:07 PM

this aint very right tbh :/ sorry

guest
Wanna post a correction for this tab? Suggest correction