Oops, an error
Loading. Please wait.

Da Frame 2R bass

version 1
version 1

Whole song

Interactive

4,831 views 1 this week
3 commentsread comments
1 2 3 4 5
1 last vote to show rating
add to favorites
×
Save as Personal and add changes to this tab that will be seen only by you. Learn more ›
×
You can save this tab as Personal to edit and correct it or add notes. All changes will be seen only by you. Learn more »
launch autoscroll
font size
0
reset
guitar tuner
edit
Autoscroll
slow
fast
+/-
esc
set tempo
stop
Author
Difficulty
Such a great song and good fun to dance to when your playing. Its got an easy concept 
different patterns I think its all right if not pop the corrections in the comment box.

|------------------------------------|
|-----------------------------5-0----|
|2222-2222-2222-2222-2222-2222---2-4-|
|------------------------------------|

|------------------| x12
|----0-4-4-3--222-0|
|2-2---------4-----|
|------------------|

|------------------| x3
|-----4-44-2-0-2-0-|
|2--2--------------|
|------------------|

|--------------------|
|5--5-7-77-8--8-4-44-|
|--------------------|
|--------------------|

|------------------| x3
|----0-4-4-3--222-0|
|2-2---------4-----|
|------------------|

|------------|
|---0-4-4-3--|
|2-2---------|
|------------|

|---------|
|02320----|
|-----020-|
|---------|

|-------------| x4
|---4-4-3-2-0-|
|2------------|
|-------------|

|-------------|
|---4-4-3-----|
|2------------|
|-------------|

|-------------|
|000----------|
|-------------|
|-------------|

|------------------| x4
|----0-4-4-3--222-0|
|2-2---------4-----|
|------------------|

|------------------| x3
|-----4-44-2-0-2-0-|
|2--2--------------|
|------------------|

|--------------------| x4
|5--5-7-77-8--8-4-44-|
|--------------------|
|--------------------|

|--------| x6
|--------|
|22222222|
|--------|

|----------|
|5--0------|
|-----2--4-|
|----------|

|--------| x4
|--------|
|22222222|
|--------|

|----------|
|5--0------|
|-----2--4-|
|----------|

|--------| x4
|--------|
|22222222|
|--------|

|----------|
|5--0------|
|-----2----|
|----------|

|------------------|
|----0-4-4-3--222-0|
|2-2---------4-----|
|------------------|

|------------------|
|----0-4-4-3--2-000|
|2-2---------4-----|
|------------------|

|------------------|
|----0-4-4-3--2---0|
|2-2---------4-----|
|------------------|

|------------------|
|----0-4-4-3--222-0|
|2-2---------4-----|
|------------------|

|------------------|
|----0-4-4-3--2-000|
|2-2---------4-----|
|------------------|

|------------------|
|----0-4-4-3--2---0|
|2-2---------4-----|
|------------------|

            
            
Suggest correction
Creating personal tab
Creating personal tab
You can edit any tab online and save it as your Personal.

You can edit, replace or remove any tab part or add personal notes – all changes will be seen only by you.

Personal tabs can be accessed anytime from any device, even offline.
Learn more »
Give kudos to tab author, rate the tab!
1 2 3 4 5
comments
print report bad tab
3 comments total.
0 reply
thechief99 180 Aug 02, 2007 09:21 AM

So what key is this in, or does it modulate from one key to the other?

0 reply
OWENBA1991 31 Aug 03, 2007 11:16 AM

Its all self explanatory I reckon. Isnt it? if you just play it as it is put the key will become obvious wont it? Im no expert I just use tab and nothing else so im not sure.

0 reply
PimvdMoosdijk 102 Jun 19, 2008 02:41 AM

perfect!

guest
You may want to rate the tab now too:
select rating
Wanna post a correction for this tab? Suggest correction