Oops, an error
Loading. Please wait.
We have an official Do I Wanna Know tab made by UG professional guitarists. Check out the tab »
×

Do I Wanna Know intro tab

version 1
version 1

Intro

  • Some of the top rated tabs on this song seem to be... Show more

Interactive

Video

72,336 views 417 this week
11 commentsread comments
1 2 3 4 5
x 106
add to favorites
×
Save as Personal and add changes to this tab that will be seen only by you. Learn more ›
×
You can save this tab as Personal to edit and correct it or add notes. All changes will be seen only by you. Learn more »
launch autoscroll
font size
0
reset
how to read this tab
guitar tuner
backing track
0:00
0:00
edit
Autoscroll
slow
fast
+/-
esc
set tempo
stop
This is from the live version from Ventura, could be wrong due to bad recordings etc. 
Still, a nice little riff and new arctics!
Tab by Rob Gration.


[Intro]

e|----------------------------------------------------------------------|
B|----------------------------------------------------------------------|
G|----------------------------------------------------------------------|
D|----------------------1\3--1------------------------------------------|
A|-------1-----------1----------3\5--3-----3--5--3-----3--3h5--3h5------|
E|-1--3-----3--1--3---------------------6-----------6--------------3----|



************************************

| \  Slide down
| h  Hammer-on

************************************

            
            
Suggest correction
Creating personal tab
Creating personal tab
You can edit any tab online and save it as your Personal.

You can edit, replace or remove any tab part or add personal notes – all changes will be seen only by you.

Personal tabs can be accessed anytime from any device, even offline.
Learn more »
comments
print report bad tab
11 comments total. Showing first comments.
0 reply
lillybuckely 11 May 14, 2014 09:03 AM, edited at 01:36 pm

this is just a bit off. it gose like this.
E|------------|
B|------------|
G|------------|
D|------------|
A|---------1--|
E|-3~--1h3--3-|

-1 reply
windberto 10 Jul 07, 2014 07:26 AM

Lack of formatting. Lack of accuracy.

-1 reply
jorgef13 10 Jul 18, 2014 06:55 AM

what about this?

e[ - - - - - - - - - - - - - - - - - - - - -
B[ - - - - - - - - - - - - - - - - - - - - -
G[ - - - - - - - - - - - - - - - - - - - - -
D[ - - - - - - - - 3 1 3 1 3 1 0 1 - - 3 3 -
A[ - - 1 - - - - 1 - - - - - - - - 1 3 - - 3
E[ 1 3 - 3 ~ 1 3 - - - - - - - - - - - - -

guest
You may want to rate the tab now too:
select rating
Wanna post a correction for this tab? Suggest correction