Oops, an error
Loading. Please wait.
We have an official Do I Wanna Know tab made by UG professional guitarists. Check out the tab »
×
1,138 views 51 this week
no commentswrite comment
1 2 3 4 5
3 more votes to show rating
add to favorites
×
Save as Personal and add changes to this tab that will be seen only by you. Learn more ›
×
You can save this tab as Personal to edit and correct it or add notes. All changes will be seen only by you. Learn more »
launch autoscroll
font size
0
reset
how to read this tab
guitar tuner
backing track
0:00
0:00
edit
Autoscroll
slow
fast
+/-
esc
set tempo
stop
About this tab version
This tab is from GuitarZero2Hero, i think that is very complete and i hope that you enjoy it. Was this info helpful? Yes No
[Intro]
E|---------------------------------|
B|---------------------------------|
G|---------------------------------|
D|---------------------------------|
A|-----------------------------1---|
E|-------------------------1h3-----|   

[Verse]
E|--------------------------------|--------------------------------|
B|--------------------------------|--------------------------------|
G|--------------------------------|--------------------------------|
D|-----------------------------1h3|-1------------------------------|
A|-------------------------1------|-------------3/5-3-----------1--| x6
E|-3-------------------1h3--------|--------------------------------|
   1   +   2   +   3   +   4   +    1   +   2   +   3   +   4   + 

E|--------------------------------|--------------------------------|
B|--------------------------------|--------------------------------|
G|--------------------------------|--------------------------------|
D|--------------------------------|--------------------------------|
A|-3-5-3--------------------------|-5-----------------------10\----|
E|--------------------------------|--------------------------------|
   1   +   2   +   3   +   4   +    1   +   2   +   3   +   4   + 

[Prechorus]
E|--------------------------------|--------------------------------|
B|--------------------------------|--------------------------------|
G|--------------------------------|--------------------------------|
D|--------------------------------|--------------------------------|
A|-6-------------------3-5-6---5--|-3-----------1---3-----------1--|
E|--------------------------------|--------------------------------|
   1   +   2   +   3   +   4   +    1   +   2   +   3   +   4   + 

E|--------------------------------|--------------------------------|
B|--------------------------------|--------------------------------|
G|--------------------------------|--------------------------------|
D|--------------------------------|--------------------------------|
A|-3-5-------------------------1--|-------------------------10\----|
E|-----3-------------------1h3----|-3------------------------------|
   1   +   2   +   3   +   4   +    1   +   2   +   3   +   4   + 

E|--------------------------------|--------------------------------|
B|--------------------------------|--------------------------------|
G|--------------------------------|--------------------------------|
D|--------------------------------|--------------------------------|
A|-6-------------------3-5-6---5--|-3-----------1---3--------------|
E|--------------------------------|--------------------------------|
   1   +   2   +   3   +   4   +    1   +   2   +   3   +   4   + 

E|--------------------------------|--------------------------------|
B|--------------------------------|--------------------------------|
G|--------------------------------|--------------------------------|
D|--------------------------------|--------------------------------|
A|--------------------------------|-----------------------------1--|
E|-3------------------------------|-3-----------------------1h3----|
   1   +   2   +   3   +   4   +    1   +   2   +   3   +   4   + 

[Chorus 1]
E|--------------------------------|--------------------------------|
B|--------------------------------|--------------------------------|
G|--------------------------------|--------------------------------|
D|-----------------------------1h3|-1------------------------------|
A|-------------------------1------|-------------3/5-3-----------1--|
E|-3-------------------1h3--------|--------------------------------|
   1   +   2   +   3   +   4   +    1   +   2   +   3   +   4   + 

E|--------------------------------|--------------------------------|
B|--------------------------------|--------------------------------|
G|--------------------------------|--------------------------------|
D|--------------------------------|--------------------------------|
A|-3-5-3---------------1-3-5---3h5|-----------------------------1--|
E|--------------------------------|-3-----------------------1h3----|
   1   +   2   +   3   +   4   +    1   +   2   +   3   +   4   + 

E|--------------------------------|--------------------------------|
B|--------------------------------|--------------------------------|
G|--------------------------------|--------------------------------|
D|-----------------------------1h3|-1------------------------------|
A|-------------------------1------|-------------3/5-3-------1---1--|
E|-3-------------------1h3--------|--------------------------------|
   1   +   2   +   3   +   4   +    1   +   2   +   3   +   4   + 

E|--------------------------------|--------------------------------|
B|--------------------------------|--------------------------------|
G|--------------------------------|--------------------------------|
D|--------------------------------|--------------------------------|
A|-3-5-3---------------1-3-5---3h5|--------------------------------|
E|--------------------------------|-3------------------------------|
   1   +   2   +   3   +   4   +    1   +   2   +   3   +   4   + 

[Prechorus 2]
E|--------------------------------|--------------------------------|
B|--------------------------------|--------------------------------|
G|--------------------------------|--------------------------------|
D|--------------------------------|--------------------------------|
A|-6-------------------3-5-6---5--|-3-----------1---3-----------1--|
E|--------------------------------|--------------------------------|
   1   +   2   +   3   +   4   +    1   +   2   +   3   +   4   + 

E|--------------------------------|--------------------------------|
B|--------------------------------|--------------------------------|
G|--------------------------------|--------------------------------|
D|--------------------------------|--------------------------------|
A|-3-5-------------------------1--|-------------------------10\----|
E|-----3-------------------1h3----|-3------------------------------|
   1   +   2   +   3   +   4   +    1   +   2   +   3   +   4   + 

E|--------------------------------|--------------------------------|
B|--------------------------------|--------------------------------|
G|--------------------------------|--------------------------------|
D|--------------------------------|--------------------------------|
A|-6-------------------3-5-6---5--|-3-----------1---3-----------1--|
E|--------------------------------|--------------------------------|
   1   +   2   +   3   +   4   +    1   +   2   +   3   +   4   + 

E|--------------------------------|--------------------------------|
B|--------------------------------|--------------------------------|
G|--------------------------------|--------------------------------|
D|--------------------------------|--------------------------------|
A|-3-5-------------------------1--|-----------------------------1--|
E|-----3-------------------1h3----|-3-----------------------1h3----|
   1   +   2   +   3   +   4   +    1   +   2   +   3   +   4   + 

[Chorus 2]
E|--------------------------------|--------------------------------|
B|--------------------------------|--------------------------------|
G|--------------------------------|--------------------------------|
D|-----------------------------1h3|-1------------------------------|
A|-------------------------1------|-------------3/5-3-----------1--|
E|-3-------------------1h3--------|--------------------------------|
   1   +   2   +   3   +   4   +    1   +   2   +   3   +   4   + 

E|--------------------------------|--------------------------------|
B|--------------------------------|--------------------------------|
G|--------------------------------|--------------------------------|
D|--------------------------------|--------------------------------|
A|-3-5-3---------------1-3-5---3h5|-----------------------------1--|
E|--------------------------------|-3-----------------------1h3----|
   1   +   2   +   3   +   4   +    1   +   2   +   3   +   4   + 

E|--------------------------------|--------------------------------|
B|--------------------------------|--------------------------------|
G|--------------------------------|--------------------------------|
D|-----------------------------1h3|-1------------------------------|
A|-------------------------1------|-------------3/5-3-------1---1--|
E|-3-------------------1h3--------|--------------------------------|
   1   +   2   +   3   +   4   +    1   +   2   +   3   +   4   + 

E|--------------------------------|--------------------------------|
B|--------------------------------|--------------------------------|
G|--------------------------------|--------------------------------|
D|--------------------------------|--------------------------------|
A|-3-5-3---------------1-3-5---3h5|-------------------------10\----|
E|--------------------------------|-3------------------------------|
   1   +   2   +   3   +   4   +    1   +   2   +   3   +   4   + 

[Outro Pt.1]
E|--------------------------------|--------------------------------|
B|--------------------------------|--------------------------------|
G|--------------------------------|--------------------------------|
D|--------------------------------|--------------------------------|
A|-6-------------------3-5-6---5--|-3-----------1---3-----------1--|
E|--------------------------------|--------------------------------|
   1   +   2   +   3   +   4   +    1   +   2   +   3   +   4   + 

E|--------------------------------|--------------------------------|
B|--------------------------------|--------------------------------|
G|--------------------------------|--------------------------------|
D|--------------------------------|--------------------------------|   x2
A|-3-5-------------------------5--|-------------------------10\----|
E|-----3-------------------1h3----|-3------------------------------|
   1   +   2   +   3   +   4   +    1   +   2   +   3   +   4   + 

E|--------------------------------|--------------------------------|
B|--------------------------------|--------------------------------|
G|--------------------------------|--------------------------------|
D|--------------------------------|--------------------------------|
A|-6-------------------3-5-6---5--|-3-----------1---3-----------1--|
E|--------------------------------|--------------------------------|
   1   +   2   +   3   +   4   +    1   +   2   +   3   +   4   + 

E|--------------------------------|--------------------------------|
B|--------------------------------|--------------------------------|
G|--------------------------------|--------------------------------|
D|--------------------------------|--------------------------------|
A|-3-5-------------------------1--|-------------------------10\----|
E|-----3-------------------1h3----|-1------------------------------|
   1   +   2   +   3   +   4   +    1   +   2   +   3   +   4   + 

[Outro Pt.2]
E|--------------------------------|--------------------------------|
B|--------------------------------|--------------------------------|
G|--------------------------------|--------------------------------|
D|--------------------------------|--------------------------------|
A|-6-------------------3-5-6---5--|-3-----------1---3--------------|
E|--------------------------------|--------------------------------|
   1   +   2   +   3   +   4   +    1   +   2   +   3   +   4   + 

E|--------------------------------|--------------------------------|
B|--------------------------------|--------------------------------|
G|--------------------------------|--------------------------------|
D|--------------------------------|--------------------------------|   x3
A|-----------------------------1--|-3-5----------------------------|
E|-3------------------------------|-----3--------------------------|
   1   +   2   +   3   +   4   +    1   +   2   +   3   +   4   + 

E|--------------------------------|--------------------------------|
B|--------------------------------|--------------------------------|
G|--------------------------------|--------------------------------|
D|--------------------------------|--------------------------------|  
A|--------------------------------|--------------------------------|
E|-3------------------------------|-3------------------------------|
   1   +   2   +   3   +   4   +    1   +   2   +   3   +   4   +



************************************

| h  Hammer-on
| /  Slide up
| \  Slide down

************************************

            
            
Suggest correction
Creating personal tab
Creating personal tab
You can edit any tab online and save it as your Personal.

You can edit, replace or remove any tab part or add personal notes – all changes will be seen only by you.

Personal tabs can be accessed anytime from any device, even offline.
Learn more »
Give kudos to tab author, rate the tab!
1 2 3 4 5
comments
print report bad tab
guest
You may want to rate the tab now too:
select rating
Wanna post a correction for this tab? Suggest correction