Oops, an error
Loading. Please wait.

Dont Forget Whose Legs Youre On tab

version 1
version 1

Whole song

1,644 views 1 this week
2 commentsread comments
1 2 3 4 5
x 3
add to favorites
×
Save as Personal and add changes to this tab that will be seen only by you. Learn more ›
×
You can save this tab as Personal to edit and correct it or add notes. All changes will be seen only by you. Learn more »
launch autoscroll
font size
0
reset
how to read this tab
guitar tuner
edit
Autoscroll
slow
fast
+/-
esc
set tempo
stop
Author
Difficulty
This is my first tab for guitar, and I'm not a proper guitar player, so any mess 
ups please correct me rather than rating me shit

Wait until 00:41
e|3~------3~------|
B|4~--------------|
G|5~--------------|
D|----------------|
A|----------------|
E|----------------|

Verse:
e|----3~--------3~---------8~--------3~----|
B|--4---------4----------9---------4-------|
G|5---------5---------10---------5---------|
D|-----------------------------------------|x2
A|-----------------------------------------|
E|-----------------------------------------|

Chorus:
e|-----8~----------10~--------3~---------8~---------8~--------3~----|
B|---9----------11----------4----------9----------9---------3-------|
G|10---------12-----------5---------10---------10---------3---------|
D|------------------------------------------------------------------|
A|------------------------------------------------------------------|
E|------------------------------------------------------------------|

Bridge
e|--------------------3~--------------------|
B|------------------4-----------------------|
G|--------3-------5-----------------3-------|
D|------5---6-5-3-----------------5---6-5-3-|
A|3-5-6---------------------3-5-6-----------|
E|------------------------------------------|

e|-8~---------------------------8~---8~-------8~---8~---3~-------|
B|-9~-------------------------9-------------9-----------4~-------|
G|10~----------------------10------------10-------------5~-------|
D|---------------------------------------------------------------|
A|---------------------------------------------------------------|
E|---------------------------------------------------------------|

e|-----8~---10--8------8~---10--8--3~-----------------|
B|---9---------------9-------------4~-----------------|
G|10--------------10---------------5~-----------------|
D|----------------------------------------------------|
A|----------------------------------------------------|
E|----------------------------------------------------|

e|-8~--------------3~----------------|
B|-9~--------------4~----------------|
G|10~--------------5~----------------|
D|10~--------------------------------|
A|-----------------------------------|
E|-----------------------------------|

Chorus:
e|----------------11~--------3~---------8~---------8~------------3~----|
B|-------------10------------4~---------9~---------9~----------4-------|
G|----------12---------------5~--------10~--------10~--------5---------|
D|---------------------------------------------------------------------|
A|---------------------------------------------------------------------|
E|---------------------------------------------------------------------|

Outro:
e|----------------3~---------|  |----------------3~-----3----|
B|----------------4~---------|  |----------------4~-----4----|
G|--------3-------5~---------|  |----------------5~--5-------|
D|------5---6-5-3------------|x3|------5---6-5-3-------------|
A|3-5-6----------------------|  |3-5-6-----------------------|
E|---------------------------|  |----------------------------|

e|----------------3~---------|  |---------------------------3~----|
B|----------------4~---------|  |---------------------------4~----|
G|--------3-------5~---------|  |---------------------------5~----|
D|------5---6-5-3------------|x4|--------------/10~---------------|
A|3-5-6----------------------|  |3-6---3--3-----------------------|
E|---------------------------|  |---------------------------------|

This is my first tab for guitar, and I'm not a proper guitar player, so any mess 
ups please correct me rather than rating me shit

Wait until 00:41
e|3~------3~------|
B|4~--------------|
G|5~--------------|
D|----------------|
A|----------------|
E|----------------|

Verse:
e|----3~--------3~---------8~--------3~----|
B|--4---------4----------9---------4-------|
G|5---------5---------10---------5---------|
D|-----------------------------------------|x2
A|-----------------------------------------|
E|-----------------------------------------|

Chorus:
e|-----8~----------10~--------3~---------8~---------8~--------3~----|
B|---9----------11----------4----------9----------9---------3-------|
G|10---------12-----------5---------10---------10---------3---------|
D|------------------------------------------------------------------|
A|------------------------------------------------------------------|
E|------------------------------------------------------------------|

Bridge
e|--------------------3~--------------------|
B|------------------4-----------------------|
G|--------3-------5-----------------3-------|
D|------5---6-5-3-----------------5---6-5-3-|
A|3-5-6---------------------3-5-6-----------|
E|------------------------------------------|

e|-8~---------------------------8~---8~-------8~---8~---3~-------|
B|-9~-------------------------9-------------9-----------4~-------|
G|10~----------------------10------------10-------------5~-------|
D|---------------------------------------------------------------|
A|---------------------------------------------------------------|
E|---------------------------------------------------------------|

e|-----8~---10--8------8~---10--8--3~-----------------|
B|---9---------------9-------------4~-----------------|
G|10--------------10---------------5~-----------------|
D|----------------------------------------------------|
A|----------------------------------------------------|
E|----------------------------------------------------|

e|-8~--------------3~----------------|
B|-9~--------------4~----------------|
G|10~--------------5~----------------|
D|10~--------------------------------|
A|-----------------------------------|
E|-----------------------------------|

Chorus:
e|----------------11~--------3~---------8~---------8~------------3~----|
B|-------------10------------4~---------9~---------9~----------4-------|
G|----------12---------------5~--------10~--------10~--------5---------|
D|---------------------------------------------------------------------|
A|---------------------------------------------------------------------|
E|---------------------------------------------------------------------|

Outro:
e|----------------3~---------|  
B|----------------4~---------|  
G|--------3-------5~---------|  
D|------5---6-5-3------------|Carry on 'till faded out
A|3-5-6----------------------|  
E|---------------------------|  

            
            
Suggest correction
Creating personal tab
Creating personal tab
You can edit any tab online and save it as your Personal.

You can edit, replace or remove any tab part or add personal notes – all changes will be seen only by you.

Personal tabs can be accessed anytime from any device, even offline.
Learn more »
Give kudos to tab author, rate the tab!
1 2 3 4 5
comments
print report bad tab
2 comments total.
0 reply
jc9393 52 Jun 15, 2010 12:03 PM

you are my hero :D sounds fine to me apart from 10.9.10 bit which doesnt sound right, maybe just me, but ive been waiting ages for this so meh!!! :D

0 reply
AK_Lampard 10 Jul 14, 2010 08:02 AM

I think the ending should be like this:

e|-------------------3~-----|
B|----3-4-6-4-3------4~-----|
G|3-5-----------4----5~-----|
D|--------------------------|
A|--------------------------|
E|--------------------------|

guest
You may want to rate the tab now too:
select rating
Wanna post a correction for this tab? Suggest correction