Oops, an error
Loading. Please wait.
We have an official Evil Twin tab made by UG professional guitarists. Check out the tab »
×

Evil Twin tab

version 4
version 4

Whole song

Interactive

100 views 1 this week
no commentswrite comment
1 2 3 4 5
3 more votes to show rating
add to favorites
×
Save as Personal and add changes to this tab that will be seen only by you. Learn more ›
×
You can save this tab as Personal to edit and correct it or add notes. All changes will be seen only by you. Learn more »
launch autoscroll
font size
0
reset
how to read this tab
guitar tuner
backing track
0:00
0:00
edit
Autoscroll
slow
fast
+/-
esc
set tempo
stop
Author
Difficulty
About this tab version
This is the lead guitar, played by alex turner, include the guitar solo and the outro of the song. Was this info helpful? Yes No
Hi everyone, i keep tabbing, im boring, so this is the part of Alex, i will not tab the Jamie part because
someone else already did and very good, its the version 3 of this song, check it out
i based on the solo according to this video https://www.youtube.com/watch?v=o9s8S92r_yw where you can see
Alex doing his magic, anyways i love this song, it has so much power on it


[Intro]

e|------------------------|
B|------------------------|
G|------------------------|
D|------------------------|   x4
A|------------------------|
E|2-2-0-2-0-5-0-2-0-2-2-0-|

e|----------|
B|----------|
G|----------|
D|----------|    On the 4th     
A|----------|
E|2~~-------|


[Verse]

You've never met before
But still she greets you like a long lost rock and roll
She's definitely one of those
But you'll go wherever she goes

And when my body and my mind
Both start talking at the exact same time
Trying to think of ways to make her mine
But they're difficult to find


[Chorus]

It's not what I need

e|-------------------------------|
B|5-/-7-/-10--12-b14-br-10--12b--|
G|-------------------------------|
D|-------------------------------|
A|-------------------------------|
E|-------------------------------|

No, your love's not what I need

e|-------------------------------|
B|5-/-7-/-10--12-b14-br-10--12b--|
G|-------------------------------|
D|-------------------------------|
A|-------------------------------|
E|-------------------------------|

So don't give it to me

[Interlude]

e|----------|
B|----------|
G|----------|
D|----------|
A|----------|
E|2-2~~-----|

e|----------|
B|4-b-------|
G|4-b-------|
D|----------|
A|----------|
E|----------|

And she said

[Verse]

"Ok, well I knew this will sound cold
But I really have to go

e|-------------------------|
B|-------------------------|
G|-------------------------|
D|--12--12---12--12--12----|
A|--12--12---12--12--12----|
E|--10--10---10--10--10----|

Oh, it's not that I'm not free

e|-------------------------|
B|-------------------------|
G|-------------------------|
D|--7---7--7---9---9--9--9-|
A|--7---7--7---9---9--9--9-|
E|--5---5--5---7---7--7--7-|

There's nowhere I need to be
It's just your love's not what I need

e|-------------------------|
B|-------------------------|
G|-------------------------|
D|--12--12---12--12--12----|
A|--12--12---12--12--12----|
E|--10--10---10--10--10----|

So don't give it to me"

e|-------------------------|
B|-------------------------|
G|-------------------------|
D|--7---7--7---9---9--9--9-|
A|--7---7--7---9---9--9--9-|
E|--5---5--5---7---7--7--7-|

[Interlude]

e|------------------------|
B|----------------4-b-----|
G|----------------4-b-----|
D|------------------------|   x4
A|------------------------|
E|2-2-0-2-0-5-0-2---------|



[Chorus]

It's not what I need

e|-------------------------------|
B|5-/-7-/-10--12-b14-br-10--12b--|
G|-------------------------------|
D|-------------------------------|
A|-------------------------------|
E|-------------------------------|

No, your love's not what I need
So don't give it to me

e|-------------------------------|
B|12-10--7\-5-/-7-/-10-12b-------|
G|-------------------------------|
D|-------------------------------|
A|-------------------------------|
E|-------------------------------|


[Bridge]


She said: "Baby, how can I believe you

e|---------------------------------------------------|
B|---------------------------------------------------|
G|---------------------------------------------------|
D|---------------------------7--7--7---14--14--14--14|
A|---------------------------7--7--7---14--14--14--14|
E|---------------------------5--5--5---12--12--12--12|

How can I believe you when you can't believe your luck? "

e|---------------------------------------------------|
B|---------------------------------------------------|
G|---------------------------------------------------|
D|--11-11-11-11-11-11-11-11--7--7--7---14--14--14--14|
A|--11-11-11-11-11-11-11-11--7--7--7---14--14--14--14|
E|--9--9--9--9--9--9--9--9---5--5--5---12--12--12--12|

No point sticking to the plan when it's come unstuck

e|------------------------------------------------------------------------------------------------------|
B|------------------------------------------------------------------------------------------------------|
G|------------------------------------------------------------------------------------------------------|
D|--11-11-11-11-11-11-11-11--9---9--9---7---7--7---9---9--9---7---7--7---6---6--6---5---5--5--5----4---4|
A|--11-11-11-11-11-11-11-11--9---9--9---7---7--7---9---9--9---7---7--7---6---6--6---5---5--5--5----4---4|
E|--9--9--9--9--9--9--9--9---7---7--7---5---5--5---7---7--7---5---5--5---4---4--4---3---3--3--5----2---2|

It's more a hunger than a thirst
You'll break your heart the second time
Before you know about the first
Looks well-equipped to leave you in the lurch
But you'll let her do her worst

And it's not hard to tell
It's obvious the other angels' faces fell
When she told them that she had to go
Troubled wings and overcoat for something colorful
(Tha knows)


[Solo]

Please note that the many b in the tab indicate how much time you have to stroke on the string
i dont know how to write it, so if you know, please tell me and i will write it correctly, what i try
to show is bend the string and with the string bended you keep hiting on it. thanks

e|-------------------------------------------------------------------------------|
B|-------------------------------------------------------------------------------|
G|4b6-(x10)------br-2------14-16bbb18br-14--11b13-br---21b23-br--14bbbb18-br-14--|
D|--------------------/-16-------------------------------------------------------|
A|-------------------------------------------------------------------------------|
E|-------------------------------------------------------------------------------|

e|-------------------------------------------------------|
B|-------------------------------------------------------|
G|-------------------------6------6------6------6---/16--|
D|2/4-\-2-/-4-/-9-7---9b11---9b11---9b11---9b11----------|
A|-------------------------------------------------------|
E|-------------------------------------------------------|

[Outro]

It's not what I need

e|---------------------------|
B|---------------------------|
G|---------------------------|
D|2-/-4-/-7-9-b11-br-7-9-br--|
A|---------------------------|
E|---------------------------|

No, your love's not what I need

e|---------------------------|
B|---------------------------|
G|---------------------------|
D|2-/-4-/-7-9-b11-br-7-9-br--|
A|---------------------------|
E|---------------------------|

So don't give it to me
No, your love's not what I need

e|--------------------------------|
B|--------------------------------|
G|--------------------------------|
D|9-7---2-/-4--7-/-9--9b11-br-7-9-|
A|--------------------------------|
E|--------------------------------|

So don't give it to me
No, your love's not what I need

e|--------------------------------|
B|--------------------------------|
G|--------------------------------|
D|9-7---2-/-4--7-/-9--9b11-br-7-9-|
A|--------------------------------|
E|--------------------------------|
 

this maybe is a 3th guitar in album version comes in the 2nd time

e|--------------------------------|
B|--------------------------------|
G|--------------------------------| 
D|--------------------9b11-(x10)--|
A|--------------------------------|
E|--------------------------------|
 
So don't give it to me
No, your love's not what I need

e|--------------------------------|
B|--------------------------------|
G|--------------------------------|
D|9-7---2-/-4--7-/-9--9b11-br-7-9-|
A|--------------------------------|
E|--------------------------------|

this maybe is a 3th guitar in album version comes in the 2nd time

e|--------------------------------|
B|--------------------------------|
G|--------------------------------|
D|9b11-(x10)----------9b11-(x10)--|
A|--------------------------------|
E|--------------------------------|

So don't give it to me
Your love's not what I need

e|-------------------------------|
B|12-10--7\-5-/-7-/-10-12b-------|
G|-------------------------------|
D|-------------------------------|
A|-------------------------------|
E|-------------------------------|


************************************

| ~   Vibrato
| b   Bend
| br  Bend release
| /   Slide up
| \   Slide down

************************************

            
            
Suggest correction
Creating personal tab
Creating personal tab
You can edit any tab online and save it as your Personal.

You can edit, replace or remove any tab part or add personal notes – all changes will be seen only by you.

Personal tabs can be accessed anytime from any device, even offline.
Learn more »
Give kudos to tab author, rate the tab!
1 2 3 4 5
comments
print report bad tab
guest
You may want to rate the tab now too:
select rating
Wanna post a correction for this tab? Suggest correction