Oops, an error
Loading. Please wait.
We have an official Fluorescent Adolescent tab made by UG professional guitarists. Check out the tab »
×
838 views 30 this week
1 commentread comment
1 2 3 4 5
3 more votes to show rating
add to favorites
×
Save as Personal and add changes to this tab that will be seen only by you. Learn more ›
×
You can save this tab as Personal to edit and correct it or add notes. All changes will be seen only by you. Learn more »
launch autoscroll
font size
0
reset
guitar tuner
backing track
0:00
0:00
edit
Autoscroll
slow
fast
+/-
esc
set tempo
stop
Author
Difficulty
-------------------------------------------------------------------------------
                             FLUORESCENT ADOLESCENT - Arctic Monkeys
-------------------------------------------------------------------------------

Tabbed by: Julien Gignier
E-mail: julien.gignier@laposte.net

Tuning: EADG

   Here's the bass tablature I made for Fluorescent Adolescent from the Arctic Monkeys. I verified it a lot of
time while listening to the music, reading the tab, and playing it, and couldn't find any mistake. Also, I
tried to make it the most readable possible.
   Please e-mail me if you think something is wrong, are leave a message in the comments below! Thanks for
voting if you did!


        Intro:
G|-----------------|-----------------|-----------------|-----------------|
D|-----------------|-----------------|-----------------|-----------------|
A|-7-7-7-----------|-----------------|-9-9-9-----------|-----------------|
E|-----------------|-9-9-9-----------|-----------------|-7-7-7-----------|

G|-----------------|-----6-----6---4-|-----------------|-----4-----4------|
D|-----2-----------|-----------------|-----4-----4-----|------------------|
A|---------------2-|-4--X----4---2---|---------------4-|-2--X----2--------|     x2
E|-0--X----0-2-4---|-----------------|-2--X----2---2---|-------------/4-2-|


        Verse 1:
G|------------------|----------------------|-------------------|-------------------|
D|----------------9-|-11-11-11-11---11---9-|---------------/11-|-9-9-9-9----9------|
A|-7-7-7-7-7-9-11---|----------------------|-9-9-9-9-9-9-9-----|---------11---11-9-|
E|------------------|-------------9----7---|-------------------|-------------------|

G|------------------|----------------------|-------------------|--------------------|
D|----------------9-|-11-11-11-11---11---9-|---------------/11-|-9-9-9-9----9-------|
A|-7-7-7-7-7-9-11---|----------------------|-9-9-9-9-9-9-9-----|---------11---11-9\-|
E|------------------|-------------9----7---|-------------------|--------------------|


        Chorus 1:
G|-----------------|-----------------|-----------------|-----------------|
D|-----------------|-----------------|-----------------|-----------------|
A|-----------------|---2-2-----------|-----------------|---2-2-----2-2---|
E|---2-2-----------|-----------------|---2-2-----2-2---|-----------------|

G|-----------------|-----------------|-----------------|-----------------|
D|-----------------|-----------------|-----------------|-----------------|
A|-----------------|-2-2h4-2---2h4-2-|-----------------|-----------------|
E|-2-2h4-2---2h4-2-|-----------------|-2---------------|-5---------------|


        Verse 2:
G|------------------|-----------------------|-------------------|-------------------|
D|----------------9-|-11-11-11-11-9-9-------|---------------/11-|-9-9-9-9----9------|
A|-7-7-7-7-7-9-11---|-----------------11-11-|-9-9-9-9-9-9-9-----|---------11---11-9-|
E|------------------|-----------------------|-------------------|-------------------|

G|------------------|----------------------|-----------------|-----------------|
D|----------------9-|-11-11-11-11-9--------|-----------------|-----------------|
A|-7-7-7-7-7-9-11---|-----------------11---|-9-9-9-----------|-----------------|
E|------------------|----------------------|-----------------|-----------------|


        Chorus 2:
G|-----------------|-----------------|-----------------|-----------------|
D|-----------------|-----------------|-----------------|-----------------|
A|-----------------|-2-2-2-2-2-2-2-2-|-----------------|-2-2-2-2-2-2-2-2-|
E|-2-2-2-2-2-2-2-2-|-----------------|-2-2-2-2-2-2-2-2-|-----------------|

G|-----------------|-----------------|-----------------|-----------------|
D|-----------------|-----------------|-----------------|-----------------|
A|-----------------|---2-2-----------|-----------------|-2-2-2-2-2-2-2-2-|
E|---2-2-----------|-----------------|-2-2-2-2-2-2-2-2-|-----------------|


        Interlude:
G|-----------------|-----------------|-----------------|-----------------|
D|-----------------|-----------------|-----------------|-----------------|
A|-----------------|----/7---6-------|-----------------|-----------------|
E|-4-----4---------|-4-----------7---|-9-----9---------|-9-----9-----9---|

G|------------------|-----------------|-----------------|-----------------|
D|------------------|-----------------|-----------------|-----------------|
A|------------------|----/7---6-------|-----------------|-----------------|
E|-\2-----2---------|-2-----------7---|-4-----4---------|-2-----2-------/-|


        Bridge:
G|-----------------|-----------------|-----------------|-----------------|
D|-----------------|-----------------|-----------------|-----------------|
A|-7-7-7-----------|-----------------|---9-9---------9-|-----------------|     x2
E|-----------------|-9-9-9-----------|-----------------|-7-7-7-----------|

G|-----------------|-----------------|-----------------|-----------------|
D|-----------------|-----------------|-----------------|-----------------|
A|-7-7-7-----------|-----------------|-9-9-9-----------|-----------------|
E|-----------------|-9-9-9-----------|-----------------|-7-7-7-7-7-7-7-7-|

G|------------------------|
D|------------------------|
A|------------------------|
E|-11-11-11-11-11-12-11-9-|


        Outro:
G|-----------------|-----------------|-----------------|-----------------|
D|-----------------|-----------------|-----------------|-----------------|
A|---------------2-|-4-4-4-4-2-2-----|---------------4-|-2-2-2-2---2-----|      x2
E|-0-0-0-0-0-2-4---|-------------4-4-|-2-2-2-2-2-2-2---|---------4---4-2-|

G|-----------------|-----6-----------|-----------------|-----4------------|
D|-----2-----------|-----------------|-----4-----------|------------------|
A|---------------2-|-4-------2-------|---------------4-|-2-------2-2------|     x2
E|-0-------0-2-4---|-------------4---|-2-------2---2---|-------------/4-2-|

G|-----------------|
D|-----------------|
A|-4---------------|
E|-----------------|



| /  slide up
| \  slide down
| h  hammer-on
| X  Mute note
===============================================================================

            
            
Suggest correction
Creating personal tab
Creating personal tab
You can edit any tab online and save it as your Personal.

You can edit, replace or remove any tab part or add personal notes – all changes will be seen only by you.

Personal tabs can be accessed anytime from any device, even offline.
Learn more »
Give kudos to tab author, rate the tab!
1 2 3 4 5
comments
print report bad tab
1 comment total.
0 reply
Sam95Mc 58 Dec 09, 2017 08:37 AM

Good job here! keep it up man!!

guest
You may want to rate the tab now too:
select rating
Wanna post a correction for this tab? Suggest correction