Oops, an error
Loading. Please wait.
We have an official Fluorescent Adolescent tab made by UG professional guitarists. Check out the tab »
×

Fluorescent Adolescent chords

142,796 views 60 this week
7 commentsread comments
1 2 3 4 5
x 97
add to favorites
×
Save as Personal and add changes to this tab that will be seen only by you. Learn more ›
×
You can save this tab as Personal to edit and correct it or add notes. All changes will be seen only by you. Learn more »
launch autoscroll
font size
0
reset
transpose
0
reset
display chords
guitar tuner
backing track
0:00
0:00
edit
Autoscroll
slow
fast
+/-
esc
set tempo
stop
Strumming
There is no strumming pattern for this song yet. and get +5 IQ
Arctic Monkeys - Flourescent Adolescent
Tabbed by Tom Dixon    Capo 2.
  D Bm Em A F#m G
e-2-2--0--0-2---3-|
B-3-3--0--2-2---0-|
G-2-4--0--2-2---0-|
D-0-4--2--2-4---0-|
A---2--2--0-4---2-|
E---2--0----2---3-|

Intro.

e-222---------222------000---------000----------|
B-333---------333------000---------222----------|
G-222---------444------000---------222----------| x2
D-000-------2-444-4--2-222-------4-222----------|
A-----0-2-4---222------222-2-2-2---000-4-4-2-2--|
E-------------222------000----------------------|

D - Bm - Em - A x2

Verse 1.
                           D
You used to get it in your fishnets
                            Bm
Now you only get it in your night dress
                                     Em
Discarded all the naughty nights for niceness
                        A
Landed in a very common crisis
                           D
Everything's in order in a black hole
                               Bm
Nothing seems as pretty as the past though
                             Em
That Bloody Mary's lacking a Tabasco
                              A
Remember when he used to be a rascal?

Chorus.
                Em
Oh that boy's a slag
                  A
The best you ever had
                  Em
The best you ever had
          A                    Em
Is just a memory and those dreams
               Em
Not as daft as they seem
                   A
Not as daft as they seem
                 G
My love when you dream them up...

Verse 2.
                                  D
Flicking through a little book of sex tips
                                  Bm
Remember when the boys were all electric?
                                   Em
Now when she's told she's gonna get it
                                     A
I'm guessing that she'd rather just forget it
                             D
Clinging to not getting sentimental
                              Bm
Said she wasn't going but she went still
                               Em
Likes her gentlemen not to be gentle
                                   A
Was it a Mecca dauber or a betting pencil?

Chorus.
                Em
Oh that boy's a slag
                  A
The best you ever had
                  Em
The best you ever had
          A                    Em
Is just a memory and those dreams
               Em
Not as daft as they seem
                   A
Not as daft as they seem
                 G
My love when you dream them up...
F#m               Bm
Oh, where did you go?
              Em
Where did you go?
              F#m  Em
Where did you go? Woah.

Intro.

e-222---------222------000---------000----------|
B-333---------333------000---------222----------|
G-222---------444------000---------222----------|
D-000-------2-444-4--2-222-------4-222----------|
A-----0-2-4---222------222-2-2-2---000-4-4-2-2--|
E-------------222------000----------------------|

Bridge.

D          Bm
Falling about
           Em              A
You took a left off Last Laugh Lane
              D             Bm
You were just sounding it out
           Em             A
You're not coming back again.

D          Bm
Falling about
           Em              A
You took a left off Last Laugh Lane
              D             Bm
You were just sounding it out
           Em             A
You're not coming back again.

Verse 1.

                          D
You used to get it in your fishnets
                            Bm
Now you only get it in your night dress
                                     Em
Discarded all the naughty nights for niceness
                        A
Landed in a very common crisis
                           D
Everything's in order in a black hole
                               Bm
Nothing seems as pretty as the past though
                              Em
That Bloody Mary's lacking in Tabasco
                              A           Bm
Remember when he used to be a rascal?

            
            
Suggest correction
Creating personal tab
Creating personal tab
You can edit any tab online and save it as your Personal.

You can edit, replace or remove any tab part or add personal notes – all changes will be seen only by you.

Personal tabs can be accessed anytime from any device, even offline.
Learn more »
comments
print report bad tab
7 comments total. Showing first comments.
+8 reply
LesThanPaul 338 Apr 07, 2012 04:21 AM

The single notes in your intro are all one string too low. It should be:
e-222---------222------000---------000----------|
B-333---------333------000---------222----------|
G-222-------2-444-4--2-000-------4-222----------| x2
D-000-0-2-4---444------222-2-2-2---222-4-4-2-2--|
A-------------222------222---------000----------|
E-------------222------000----------------------|

Sounds good other than that

0 reply
blink182nirvana 10 Oct 29, 2012 06:59 AM

Ah, LesThanPaul cleared it up. I was a bit confused with the little intro licks as it sounded quite a few semi-tones lower than the chords, but that's all fine. Great tab ;)

+15 reply
ThatGriff 10 Sep 17, 2013 09:34 AM

Also, if I could mention something about the intro bit too.
To my ear the end of it doesn't quite sound correct, I believe it should be this:

e-222---------222------000---------000----------|
B-333---------333------000---------222----------|
G-222-------2-444-4--2-000-------4-222-2-2------| x2
D-000-0-2-4---444------222-2-2-2---222-----4-2--|
A-------------222------222---------000----------|
E-------------222------000----------------------|

But like LesThanPaul said, very good otherwise.

guest
Wanna post a correction for this tab? Suggest correction