Oops, an error
Loading. Please wait.
We have an official Fluorescent Adolescent tab made by UG professional guitarists. Check out the tab »
×

Fluorescent Adolescent intro tab

version 1
version 1

Intro

Whole song

Video

  • TAB on screen - Rests shown.
20,505 views 30 this week
2 commentsread comments
1 2 3 4 5
x 13
add to favorites
×
Save as Personal and add changes to this tab that will be seen only by you. Learn more ›
×
You can save this tab as Personal to edit and correct it or add notes. All changes will be seen only by you. Learn more »
launch autoscroll
font size
0
reset
how to read this tab
guitar tuner
backing track
0:00
0:00
edit
Autoscroll
slow
fast
+/-
esc
set tempo
stop
Author
e|-----------------------------------------|
B|-----------------------------------------|
G|-----------------------------------------|
D|-----------------------------------------|
A|----------2-4-4-4-2-2-----0-4-2-2-2------|
E|-0-0-2-4-------------2-2-2---------------|

to make this authentic just press the fret when you strum

kinda like a tapping, but while youre strumming

            
            
Suggest correction
Creating personal tab
Creating personal tab
You can edit any tab online and save it as your Personal.

You can edit, replace or remove any tab part or add personal notes – all changes will be seen only by you.

Personal tabs can be accessed anytime from any device, even offline.
Learn more »
comments
print report bad tab
2 comments total.
+2 reply
pippaflippa17 51 Aug 10, 2009 09:58 AM

e|-----------------------------------------------------------------|
B|-----------------------------------------------------------------|
G|-----------------------------------------------------------------|
D|-----------------------------------------------------------------|
A|--------------2-4-4-4---4---2-----------------4-2-2-2---2-2------|
E|0-0-0---0-2-4-------------------2-2-2---2---2---------------4-2-0|

check that it works copy and paste into http://www.gootar.com/tabber.html
and press play

0 reply
Pelusteriano 5,295 May 12, 2015 06:17 PM

Lack of accuracy. Considering it is just the intro, it should be as accurate as possible since it only is a brief part of the song. The format leaves a lot to be desired, though. All notes are typed in a way that it seems every note has the same time value and some notes are, actually, wrong.

guest
You may want to rate the tab now too:
select rating
Wanna post a correction for this tab? Suggest correction