Oops, an error
Loading. Please wait.

Fright Lined Dining Room bass

version 1
version 1

Whole song

Interactive

2,178 views 1 this week
2 commentsread comments
1 2 3 4 5
x 4
add to favorites
×
Save as Personal and add changes to this tab that will be seen only by you. Learn more ›
×
You can save this tab as Personal to edit and correct it or add notes. All changes will be seen only by you. Learn more »
launch autoscroll
font size
0
reset
guitar tuner
edit
Autoscroll
slow
fast
+/-
esc
set tempo
stop
Author
Difficulty
Finally, the proper version... Sorry about the complications...
G|----------------------5-------5------------------------5-----x-5--|
D|------5-------5-----9-------9----------5-------5-----9------------|
A|----9-------9---7--7----7--7---------9-------9---7--7----7--7-----|x6
E|7--7----7--7---------------------7--7----7--7---------------------|

G|---------   -------------5-------5------------------------5-----x-5--|
D|---------   -----------9-------9----------5-------5-----9------------|
A|----3-1--x6 ---------------7--7---------9-------9---7--7----7--7-----|
E|0--x-----   0~----------------------7--7----7--7---------------------|

G|----------------------5-------5------------------------5-----x-5--|
D|------5-------5-----9-------9----------5-------5-----9------------|
A|----9-------9---7--7----7--7---------9-------9---7--7----7--7-----|
E|7--7----7--7---------------------7--7----7--7---------------------|

G|-----------------------------------------------------------|
D|-----------------------------------------------------------|
A|--------7--7-7----------7--7-7----------7--7-7----------7--|
E|7--7-7----------7--7-7----------7--7-7----------7--7-7-----|

G|----------------------5-------5------------------------5-----x-5--|
D|------5-------5-----9-------9----------5-------5-----9------------|
A|----9-------9---7--7----7--7---------9-------9---7--7----7--7-----|
E|7--7----7--7---------------------7--7----7--7---------------------|

G|----------------------5-------5------------------------5----|
D|------5-------5-----9-------9----------5-------5-----9------|
A|----9-------9---7--7----7--7---------9-------9---7--7----7--|
E|7--7----7--7---------------------7--7----7--7---------------|

G|4474-4454-4474-54-54-|
D|---------------------|
A|---------------------|
E|---------------------|

G|---------------------   ------------------------|
D|---------------------   ------------------------|
A|--5---------5--------x3 ---------5--------------|
E|77-7-7787-77-7-87-87-   777787-77-7-7787-8-7-8~-|

G|444474-444454-4454-444454-|
D|--------------------------|
A|--------------------------|x8
E|--------------------------|

G|--------------------------|
D|--------------------------|
A|----5---------------------|x8
E|7777-7-777787-7787-777787-|

G|---------|
D|---------|
A|----3-1--|x6
E|0--x-----|

This is better...

            
            
Suggest correction
Creating personal tab
Creating personal tab
You can edit any tab online and save it as your Personal.

You can edit, replace or remove any tab part or add personal notes – all changes will be seen only by you.

Personal tabs can be accessed anytime from any device, even offline.
Learn more »
comments
print report bad tab
2 comments total.
0 reply
patch17 3,377 Nov 26, 2009 05:32 AM

im sorry, but none of this is correct in the slightest

0 reply
Zekk92 72 Jun 20, 2013 05:10 AM

final line is

G|---------|
D|---------|
A|----3-2--|x6
E|0--x-----|

and i think that would be easier make

G|-----------
D|-----------
A|----9-10---
E|7--7------- and

G|-----------
D|-----9-10--
A|7--7-------
E|-----------

guest
You may want to rate the tab now too:
select rating
Wanna post a correction for this tab? Suggest correction