Oops, an error
Loading. Please wait.
We have an official From The Ritz To The Rubble tab made by UG professional guitarists. Check out the tab »
×

From The Ritz To The Rubble bass

version 4
version 4

Whole song

Interactive

6,390 views 9 this week
1 commentread comment
1 2 3 4 5
x 3
add to favorites
×
Save as Personal and add changes to this tab that will be seen only by you. Learn more ›
×
You can save this tab as Personal to edit and correct it or add notes. All changes will be seen only by you. Learn more »
launch autoscroll
font size
0
reset
guitar tuner
backing track
0:00
0:00
edit
Autoscroll
slow
fast
+/-
esc
set tempo
stop
-------------------------------------------------------------------------------
			     From The Ritz To The Rubble - Arctic Monkeys
-------------------------------------------------------------------------------

Tabbed By : Killerpanda
e-mail: arpa92@gmail.com

This is my first tab so please rate and c/!

Tuning: STANDARD

-MAIN RIFF- Start at 0:11
G|-----------------7-----------| x6
D|--7-9---7-9---8/9----9----7--|
A|-------------5-----7---55----|
E|7------7---------------------|

-CHORUS-
G|------------------------------------------------------------------------------------------------|   
D|------------7979----------------------7979----------------------7979----------------------7979\-|  
A|5757--7979--------2(x16)--5757--7979--------2(x16)--5757--7979--------2(x16)--5757--7979--------| 
E|------------------------------------------------------------------------------------------------|

-MAIN RIFF-
G|-----------------7-----------| 
D|--7-9---7-9---8/9----9----7--|
A|-------------5-----7---55----|
E|7------7---------------------|

-CHORUS- 
G|------------------------------------------------------------------------------------------------|   
D|------------7979----------------------7979----------------------7979----------------------7979\-|  
A|5757--7979--------2(x16)--5757--7979--------2(x16)--5757--7979--------2(x16)--5757--7979--------| 
E|------------------------------------------------------------------------------------------------|
x4 

No bass for 1:47-2:04

-RIFF-
G|---------------------------------------------------| x6
D|---------------------------------------------------|
A|--------------------5-5-5-5-5-5-5-7-7-7-7-7-7p5----|
E|7-7-7-7-7-7-7-7-7-7--------------------------------|

G|--------------------------------| x2
D|999-999-999-999-----------------|
A|----------------555-555-777-777-|
E|--------------------------------|

G|------------------------------------------------------------------| x2
D|7-h9-9-9-9-9-9-9-9-9-9-9-9-9-9-9-9--------------------------------|
A|-----------------------------------5-5-5-5-5-5-5-5-7-7-7-7-7-7-7-7|
E|------------------------------------------------------------------|

-END-
G|-----------------7-----------|
D|--7-9---7-9---8/9----9----7/\|
A|-------------5-----7---55----|
E|7------7---------------------|



| /  slide up
| \  slide down
| h  hammer-on
| p  pull-off
| ~  vibrato
| +  harmonic
| x  Mute note
===============================================================================

            
            
Suggest correction
Creating personal tab
Creating personal tab
You can edit any tab online and save it as your Personal.

You can edit, replace or remove any tab part or add personal notes – all changes will be seen only by you.

Personal tabs can be accessed anytime from any device, even offline.
Learn more »
Give kudos to tab author, rate the tab!
1 2 3 4 5
comments
print report bad tab
1 comment total.
0 reply
PimvdMoosdijk 102 Aug 11, 2008 01:11 PM

Sounds allright, but I'm not sure on this part:
-RIFF-
G|-----------------------------------------------------| x6
D|--------------------------------------------44-------|
A|--------------------5-5-5-5-5-5-5-7-7-7-7-7---775----|
E|7-7-7-7-7-7-7-7-7-7-----------------------------7----|

At least, the last 7 notes, I really couldnt hear it?

guest
You may want to rate the tab now too:
select rating
Wanna post a correction for this tab? Suggest correction