Oops, an error
Loading. Please wait.

I Bet You Look Good On The Dance Floor bass

109,370 views 201 this week
4 commentsread comments
1 2 3 4 5
x 26
add to favorites
×
Save as Personal and add changes to this tab that will be seen only by you. Learn more ›
×
You can save this tab as Personal to edit and correct it or add notes. All changes will be seen only by you. Learn more »
launch autoscroll
font size
0
reset
guitar tuner
edit
Autoscroll
slow
fast
+/-
esc
set tempo
stop
Arctic Monkeys - Bet That you look good on the dance floor
Please rate and leave comments
any corrections email aidanfox@hotmail.com
Enjoy

[Intro]

G|-----------------------------------------|----------------------------------|
D|-----------------------------------------|----------------------------------|
A|-----------------------------------------|----------------------------------|
E|--2--02--02--02--022--022--0222--0222----|-22222222222222222222222222222222-|


[Verse]

G|-------------|
D|-------------|
A|--4-22-000---|X11
E|-----------2-|

Last time
G|-------------|
D|-------------|
A|-4-22-000----|X1
E|----------0--|


[Chorus]

G|----------------------------------------------------------|------------------|
D|-------2---------2----------2---------2--------2-------2--|-------2-44444----|
A|-----4---4-----4---4--0-0-4---4--0-0-4--4----4---4----4--4|-----4---------40-|
E|-2-2-------2-2----------------------------0-0------0-0----|-2-2--------------|

G|----------------------------------------------------------|------------------|
D|-------2---------2----------2---------2--------2-------2--|------------------|
A|-----4---4-----4---4--0-0-4---4--0-0-4--4----4---4----4--4|--444444444444444-|
E|-2-2-------2-2----------------------------0-0------0-0----|------------------|


[Verse]

G|-------------|
D|-------------|
A|--4-22-000---|X11
E|-----------2-|

Last time
G|-------------|
D|-------------|
A|-4-22-000----|X1
E|----------0--|


[Chorus]

G|-------------------------------------------------------|------------------|
D|-----2--------2---------2---------2--------2-------2---|-------2-44444----|
A|---4---4----4---4--0-0-4---4--0-0-4--4----4---4----4--4|-----4---------40-|
E|2-2------2-2---------------------------0-0------0-0----|-2-2--------------|

G|----------------------------------------------------------|------------------|
D|-------2---------2----------2---------2--------2-------2--|------------------|
A|-----4---4-----4---4--0-0-4---4--0-0-4--4----4---4----4--4|--444444444444444-|
E|-2-2-------2-2----------------------------0-0------0-0----|------------------|


[Bridge]

G|------------------------------------------------------------|
D|----------------2-22-22-22-222-4-44-44-44-444-44444444444444|
A|-0-00-00-00-000---------------------------------------------|
E|------------------------------------------------------------|

G|-------------------------------|---------------------------------------------------|
D|----------------2-22-22-22-222-|---------------------------------------------------|
A|-0-00-00-00-000----------------|---------------------------------------------------|
E|-------------------------------|-2-2-2-2-2-2-2-2-22222222222222222222222222222/14\2|


[Chorus]

G|------------------------------------------|------------------|
D|-------2--------2----------2----------2---|-------2-44444----|
A|-0-0-4---4-0-0-4---4------4---4------4--4-|-----4---------40-|
E|----------------------0-0--------0-0------|-2-2--------------|

G|----------------------------------------------------------|------------------|
D|-------2---------2----------2---------2--------2-------2--|------------------|
A|-----4---4-----4---4--0-0-4---4--0-0-4--4----4---4----4--4|--444444444444444-|
E|-2-2-------2-2----------------------------0-0------0-0----|------------------|


[Ending]

G|------|
D|------|
A|------|
E|--2---|



************************************

| /  Slide up
| \  Slide down

************************************

            
            
Suggest correction
Creating personal tab
Creating personal tab
You can edit any tab online and save it as your Personal.

You can edit, replace or remove any tab part or add personal notes – all changes will be seen only by you.

Personal tabs can be accessed anytime from any device, even offline.
Learn more »
comments
print report bad tab
4 comments total. Showing first comments. show 1 bad comment
0 reply
eternity12 10 Nov 11, 2008 10:28 AM

The second part of the second line of the bridge should be the same as intro ;)


G|-----------------------------------------|
D|-----------------------------------------|
A|-----------------------------------------|
E|--2--02--02--02--022--022--0222--0222----|

That part ;d otherwise perfect ;D

0 reply
eternity12 10 Nov 11, 2008 10:28 AM

The second part of the second line of the bridge should be the same as intro ;)


G|-----------------------------------------|
D|-----------------------------------------|
A|-----------------------------------------|
E|--2--02--02--02--022--022--0222--0222----|

That part ;d otherwise perfect ;D

guest
You may want to rate the tab now too:
select rating
Wanna post a correction for this tab? Suggest correction