Oops, an error
Loading. Please wait.
We have an official I Bet You Look Good On The Dancefloor tab made by UG professional guitarists. Check out the tab »
×
11,749 views 27 this week
5 commentsread comments
1 2 3 4 5
x 11
add to favorites
×
Save as Personal and add changes to this tab that will be seen only by you. Learn more ›
×
You can save this tab as Personal to edit and correct it or add notes. All changes will be seen only by you. Learn more »
launch autoscroll
font size
0
reset
how to read this tab
guitar tuner
backing track
0:00
0:00
edit
Autoscroll
slow
fast
+/-
esc
set tempo
stop
Song: I Bet You Look Good On The Dancefloor
Artist: Arctic Monkeys
Tuning: E A D G B e (Standard)
Guitars: 2
Tabbed by: Andy the rocker
Email: andypandyhind@hotmail.com

Intro
------------------
Guitar 1 (distorted):
e|-------------------------------------------------|
B|-------------------------------------------------|
G|-------------------------------------------------|
D|-4-----4-x-x-4-xxx-4-xxx-4~----4~----4~----2~----|
A|-4-----4-x-x-4-xxx-4-xxx-4~----4~----4~----2~----|
E|-2-----2-x-x-2-xxx-2-xxx-2~----2~----2~----0~----|

Guitar 2 (distorted):
e|-------------------------------------------------|
B|-------------------------------------------------| This overlaps
G|-------------------------------------------------| guitar 1
D|-4-----4-----4-----4-----4-----4-----4-----2-----| in the intro
A|-4-----4-----4-----4-----4-----4-----4-----2-----|
E|-2-----2-----2-----2-----2-----2-----2-----0-----|

Then to...

Guitar 1 (distorted):
e|---------------------------------------------------------------------|
B|---------------------------------------------------------------------|
G|----------9-11-14-16-16b(x8)-16-14----------14-16-14----------14-16b-|
D|---7-9-11--------------------------16-14-16----------16-14-16--------|
A|-9-------------------------------------------------------------------|
E|---------------------------------------------------------------------|
All notes are strum 4 times up until before the 16b(x8) where it changes to single notes.

Guitar 2 (distorted) (overlaps guitar 1):
e|-------------------------------------------------------------|
B|-------------------------------------------------------------|
G|-------------------------------------------------------------|
D|-4-4-4-4 play up until the bend at the end of guitar 1 above |
A|-4-4-4-4 listen to the record for timing --------------------|
E|-2-2-2-2 etc ------------------------------------------------|

Guitar 1 (distorted):
e|-----------------------------------------------Continued below------------|
B|--------------------------------------------------------------------------|
G|-16-16-16-14----------14------11-11-11-9---------9------------------------|
D|-------------16-14-16----16~-------------11-9-11---11-9----9--------------|
A|--------------------------------------------------------12---12-9----9-12-|
E|------------------------------------------------------------------12------|

Guitar 1 (continued):
e|------------------------|
B|------------------------|
G|------------------------|
D|-9--------------9b(x4)\-|
A|---12-9----9-12---------|
E|--------12--------------|

Then over the top is....

Guitar 2 (CLEAN):
e|------------------|
B|------------------|
G|------------------| x4
D|-11--9-9--7-7--4/-|
A|-11--9-9--7-7--4/-|
E|-9---7-7--5-5--2/-|

Verse
------------------
Guitar 1 (distorted):
e|---------------------------------------------------|
B|---------------------------------------------------|
G|---------------------------------------------------|
D|---------------------------------------------------|
A|---------------------------------------------------|
E|---------------------------------------------------|

Guitar 2 (CLEAN):
e|------------------|
B|------------------|
G|------------------| x8
D|-11--9-9--7-7--4/-|
A|-11--9-9--7-7--4/-|
E|-9---7-7--5-5--2/-|

CHORUS
------------------
Guitar 1 (distorted):
e|------------------------------------------------------------|
B|------------------------------------------------------------| This
G|-------------------------------------------99999999-11(x16)-| overlaps
D|---------44444444---------77777777---------99999999-11(x16)-| guitar 2
A|---------44444444---------77777777---------77777777-9 (x16)-|
E|---------22222222---------55555555--------------------------|

Guitar 2 (distorted):
e|------------------------------------------------------------|
B|------------------------------------------------------------|
G|-----------------------------------9999999999999999-11(x16)-|
D|-4444444444444444-7777777777777777-9999999999999999-11(x16)-|
A|-4444444444444444-7777777777777777-7777777777777777-9 (x16)-|
E|-2222222222222222-5555555555555555--------------------------|
The last power chord one is just like the others except it wouldnt all fit on sorry.

then...

Guitar 1 (distorted):
e|---------------------------------------------------------------------|
B|---------------------------------------------------------------------|
G|-----------------------------------9999999999999999-6666666666666666-|
D|-4444444444444444-7777777777777777-9999999999999999-6666666666666666-|
A|-4444444444444444-7777777777777777-7777777777777777-4444444444444444-|
E|-2222222222222222-5555555555555555-----------------------------------|

Guitar 2 (distorted):
e|---------------------------------------------------------------------|
B|---------------------------------------------------------------------|
G|-----------------------------------9999999999999999-6666666666666666-|
D|-4444444444444444-7777777777777777-9999999999999999-6666666666666666-|
A|-4444444444444444-7777777777777777-7777777777777777-4444444444444444-|
E|-2222222222222222-5555555555555555-----------------------------------|
They both play the same thing together there.

Solo
------------------
Guitar 1 (distorted):
e|------------------------------------------------------------------------|
B|---------------------------------Continued below------------------------|
G|------------------------------------------------------------------------|
D|------------------------------------------------------------------------|
A|-/16--12---14-14-14-14-14-14-12-----------------------12-14-12-14-12-14-|
E|--------------------------------14---1414141214-12-14-------------------|

Guitar 1 (continued):
e|----------------------------------------------|
B|----------------------------------------------|
G|--------------------14----14----14-16b(x4)\---|
D|---14----14---14-16----16----16---------------|
A|16----16---16---------------------------------|
E|----------------------------------------------|

Guitar 2 (CLEAN):
e|------------------|
B|------------------|
G|------------------| x4
D|-11--9-9--7-7--4/-|
A|-11--9-9--7-7--4/-| This overlaps the solo
E|-9---7-7--5-5--2/-|

Verse
------------------
Guitar 1 (distorted):
e|---------------------------------------------------|
B|---------------------------------------------------|
G|---------------------------------------------------|
D|---------------------------------------------------|
A|---------------------------------------------------|
E|---------------------------------------------------|

Guitar 2 (CLEAN):
e|------------------|
B|------------------|
G|------------------| x8
D|-11--9-9--7-7--4/-|
A|-11--9-9--7-7--4/-|
E|-9---7-7--5-5--2/-|

Chorus
------------------
Guitar 1 (distorted):
e|------------------------------------------------------------|
B|------------------------------------------------------------| This
G|-------------------------------------------99999999-11(x16)-| overlaps
D|---------44444444---------77777777---------99999999-11(x16)-| guitar 2
A|---------44444444---------77777777---------77777777-9 (x16)-|
E|---------22222222---------55555555--------------------------|

Guitar 2 (distorted):
e|------------------------------------------------------------|
B|------------------------------------------------------------|
G|-----------------------------------9999999999999999-11(x16)-|
D|-4444444444444444-7777777777777777-9999999999999999-11(x16)-|
A|-4444444444444444-7777777777777777-7777777777777777-9 (x16)-|
E|-2222222222222222-5555555555555555--------------------------|
The last power chord one is just like the others except it wouldnt all fit on sorry.

then...

Guitar 1 (distorted):
e|---------------------------------------------------------------------|
B|---------------------------------------------------------------------|
G|-----------------------------------9999999999999999-6666666666666666-|
D|-4444444444444444-7777777777777777-9999999999999999-6666666666666666-|
A|-4444444444444444-7777777777777777-7777777777777777-4444444444444444-|
E|-2222222222222222-5555555555555555-----------------------------------|

Guitar 2 (distorted):
e|---------------------------------------------------------------------|
B|---------------------------------------------------------------------|
G|-----------------------------------9999999999999999-6666666666666666-|
D|-4444444444444444-7777777777777777-9999999999999999-6666666666666666-|
A|-4444444444444444-7777777777777777-7777777777777777-4444444444444444-|
E|-2222222222222222-5555555555555555-----------------------------------|
They both play the same thing together there.

then...

Guitars 1 & 2 (distorted):
e|-------------------------------------------|
B|-------------------------------------------|
G|------------------9999999999999999-11(x16)-|
D|-7777777777777777-9999999999999999-11(x16)-|
A|-7777777777777777-7777777777777777-9 (x16)-|
E|-5555555555555555--------------------------|

Guitars 1 & 2 (distorted):
e|-----------------------------------|
B|-----------------------------------|
G|------------------9999999999999999-|
D|-7777777777777777-9999999999999999-|
A|-7777777777777777-7777777777777777-|
E|-5555555555555555------------------|

Guitar 1 (distorted):
e|-------------------------------------------------|
B|-------------------------------------------------|
G|-------------------------------------------------|
D|-4-xxx-4-xxx-4-xxx-4-xxx-4-xxx-4-xxx-4-xxx-4-xxx-|
A|-4-xxx-4-xxx-4-xxx-4-xxx-4-xxx-4-xxx-4-xxx-4-xxx-|
E|-2-xxx-2-xxx-2-xxx-2-xxx-2-xxx-2-xxx-2-xxx-2-xxx-|

Guitar 2 (distorted):
e|-------------------------------------------------|
B|-------------------------------------------------| This overlaps
G|-------------------------------------------------| guitar 1
D|-4-----4-----4-----4-----4-----4-----4-----4-----|
A|-4-----4-----4-----4-----4-----4-----4-----4-----|
E|-2-----2-----2-----2-----2-----2-----2-----2-----|

Guitar 1 (distorted):
e|-------------------------------------------------|
B|-------------------------------------------------|
G|-------------------------------------------------|
D|-4--x--4--x--4--x--4--x--4--x--4--x--4----222-4--|
A|-4--x--4--x--4--x--4--x--4--x--4--x--4----222-4--|
E|-2--x--2--x--2--x--2--x--2--x--2--x--2----000-2--|

Guitar 2 (distorted):
e|-------------------------------------------------|
B|-------------------------------------------------| This overlaps
G|-------------------------------------------------| guitar 1
D|-4~----4~----4~----4~----4~----4~----4~---222-4--|
A|-4~----4~----4~----4~----4~----4~----4~---222-4--|
E|-2~----2~----2~----2~----2~----2~----2~---000-2--|

break - "WELL I BET THAT YOU LOOK GOOD ON THE DANCEFLOOR!"

Guitars 1 & 2 (distorted):
e|-------------------------------------------|
B|-------------------------------------------|
G|------------------9999999999999999-11(x16)-|
D|-7777777777777777-9999999999999999-11(x16)-|
A|-7777777777777777-7777777777777777-9 (x16)-|
E|-5555555555555555--------------------------|

Guitars 1 & 2 (distorted):
e|-------------------------------------------------------------------------|
B|-------------------------------------------------------------------------|
G|-----------------------------------9999999999999999-666666666-6-6-6-6----|
D|-4444444444444444-7777777777777777-9999999999999999-666666666-6-6-6-6--4~|
A|-4444444444444444-7777777777777777-7777777777777777-444444444-4-4-4-4--4~|
E|-2222222222222222-5555555555555555-------------------------------------2~|

END

This is my first tab, I am pretty sure it is 100% correct as I listened to the record 
while tabbing it. Please rate it nicely thank you.
Any comments please email me on andypandyhind@hotmail.com thank you.

            
            
Suggest correction
Creating personal tab
Creating personal tab
You can edit any tab online and save it as your Personal.

You can edit, replace or remove any tab part or add personal notes – all changes will be seen only by you.

Personal tabs can be accessed anytime from any device, even offline.
Learn more »
comments
print report bad tab
5 comments total. Showing first comments.
-1 reply
Briscoe06 10 Aug 18, 2006 12:15 AM

I WANTED 2 GIVE IT A 2 STAR BUT UG WUDENT LET ME CUS I ALWAYS GIVE BAD RATINGS

0 reply
Andy the rocker 50 Aug 18, 2006 06:25 AM

And you wanted to give it 2 star why...?

0 reply
Dude413 10 Aug 19, 2006 07:07 AM

This is a really good tab. To say it's your first one, you've got off to a really good start! I liked the helpful little comments after each line.

guest
You may want to rate the tab now too:
select rating
Wanna post a correction for this tab? Suggest correction