Oops, an error
Loading. Please wait.
We have an official I Bet You Look Good On The Dancefloor tab made by UG professional guitarists. Check out the tab »
×
2,475 views 1 this week
3 commentsread comments
1 2 3 4 5
1 last vote to show rating
add to favorites
×
Save as Personal and add changes to this tab that will be seen only by you. Learn more ›
×
You can save this tab as Personal to edit and correct it or add notes. All changes will be seen only by you. Learn more »
launch autoscroll
font size
0
reset
how to read this tab
guitar tuner
backing track
0:00
0:00
edit
Autoscroll
slow
fast
+/-
esc
set tempo
stop
Author
Difficulty
        I BET YOU LOOK GOOD ON THE DANCEFLOOR - ARCTIC MONKEYS
----------------------------------------------------------------------

Band: Arctic Monkeys
Song: I Bet You Look Good On the Dance floor
Album: Whatever People Say I Am, That's What I'm Not (2006)


Tabbed by: mccann685
Email: nathanmccann93@hotmail.co.uk

Tuning: STANDARD (E A D G B e)

Any mistakes give  me a shout. enjoy


INTRO
GUITAR ONE
|---------------------------------------------------------------------|
|---------------------------------------------------------------------|
|-------4-----------4-------------------------------------------------|
|-------4-----------4-------------------------------------------------|
|-------4-----------4-------------------------------------------------|
|-------2-----------2-------------------------------------------------|
|
|-------------------------------------------------------------------|
|-------------------------------------------------------------------|
|-4-----4--------4-----------------------------4--------------------|
|-4-----4--------4-----------------------------4--------------------|
|-4-----4--------4-----------------------------4--------------------|
|-2---0-2------0-2---------------------------0-2--------------------|


|---------------------------------------------------------------------|
|---------------------------------------------------------------------|
|-----/16-----------/16-16-16-16-16-16-16-16\14-14-14-14-14-----------|
|-----/16-----------/16-16-16-16-16-16-16-16\14-14-14-14-14-----------|
|-----/16-----------/16-16-16-16-16-16-16-16\14-14-14-14-14-----------|
|-----/14-----------/14-14-14-14-14-14-14-14\12-12-12-12-12-----------|
|
|-------------------------------------------------------------------|
|-------------------------------------------------------------------|
|------------4------4----4-----------------------4------------------|
|------------4------4----4-----------------------4------------------|
|------------4------4----4-----------------------4------------------|
|----------0-2----0-2----2---------------------0-2------------------|


|-------------------------------------------------------------------|
|-------------------------------------------------------------------|
|-14-14-14-14-------------------------------------------9-9-9-9-11--|
|-14-14-14-14-----------------------9-9-9-9-11-11-11-11-------------|
|-14-14-14-14---9-9-9-9-12-12-12-12---------------------------------|
|-12-12-12-12-------------------------------------------------------|
|
|-------------------------------------------------------------------|
|-------------------------------------------------------------------|
|--------------4----------------------------------------------------|
|--------------4-4-4-4-4-4--4--4--4--4-4-4-4-4--4--4--4--4-4-4-4--4-|
|--------------4-4-4-4-4-4--4--4--4--4-4-4-4-4--4--4--4--4-4-4-4--4-|
|------------0-2-2-2-2-2-2--2--2--2--2-2-2-2-2--2--2--2--2-2-2-2--2-|


|-------------------------------------------------------------------|
|-------------------------------------------------------------------|
|-11-11-11-14-14-14-14-16-16-16-16-16b-16b-16b-16b-16b-16b-16b-16b--|
|-------------------------------------------------------------------|
|-------------------------------------------------------------------|
|-------------------------------------------------------------------|
|
|-------------------------------------------------------------------|
|-------------------------------------------------------------------|
|-------------------------------------------------------------------|
|4--4--4--4--4--4--4--4--4--4--4--4---4---4---4---4---4---4---4---4-|
|4--4--4--4--4--4--4--4--4--4--4--4---4---4---4---4---4---4---4---4-|
|2--2--2--2--2--2--2--2--2--2--2--2---2---2---2---2---2---2---2---2-|


|---------------------------------------------------------------------|
|---------------------------------------------------------------------|
|16-14----------14---16-14-----------14---16b(18)=r16====-16--16-16---|
|------16-14-16------------16-14-16-----------------------------------|
|---------------------------------------------------------------------|
|---------------------------------------------------------------------|
|
|-------------------------------------------------------------------|
|-------------------------------------------------------------------|
|-------------------------------------------------------------------|
|-4--4--4--4--4-----4--4--4--4--4--4-------11-11-9--9-9-x--7--7--4-x|
|-4--4--4--4--4-----4--4--4--4--4--4-------11-11-9--9-9-x--7--7--4-x|
|-2--2--2--2--2-----2--2--2--2--2--2-------9--9--7--7-7-x--5--5--2-x|
                                           ^ CLEAN TONE

|-----------------------------------------------------------------------|
|-----------------------------------------------------------------------|
|-16-14--------------14-------------------------------------------------|
|---------16---14-16----16--16--16-16-16-14-----------14----------------|
|--------------------------------------------16-14-16----16-------------|
|-----------------------------------------------------------------------|
| |---------------------------------------------------------------------|
|-----------------------------------------------------------------------|
|-----------------------------------------------------------------------|
|-11-11-9--9-9-x--7--7--4-x--11-11-9--9-9-x--7--7--4-x---11-11-9--9-----|
|-11-11-9--9-9-x--7--7--4-x--11-11-9--9-9-x--7--7--4-x---11-11-9--9-----|
|-9--9--7--7-7-x--5--5--2-x--9--9--7--7-7-x--5--5--2-x---9--9--7--7-----|


|-------------------------------------------------------------------|
|-------------------------------------------------------------------|
|-------------------------------------------------------------------|
|-------------------------------------------------------------------|
|-16--16-16-14--12----14-12-------------12--14-12---------12--------|
|----------------------------14-12-14-----------14-12-14------------|
|
|-------------------------------------------------------------------|
|-------------------------------------------------------------------|
|-------------------------------------------------------------------|
|-9-x--7--7--4-x--11-11-9--9-9-x--7--7--4-x--11-11-9--9-9-x---------|
|-9-x--7--7--4-x--11-11-9--9-9-x--7--7--4-x--11-11-9--9-9-x---------|
|-7-x--5--5--2-x--9--9--7--7-7-x--5--5--2-x--9--9--7--7-7-x---------|


|-------------------------------------------------------------------|
|-------------------------------------------------------------------|
|-------------------------------------------------------------------|
|-------------------------------------------------------------------|
|14b15-15-15-15r14\-------------------------------------------------|
|-------------------------------------------------------------------|
|
|-------------------------------------------------------------------|
|-------------------------------------------------------------------|
|-------------------------------------------------------------------|
|-7---7---4--x------------------------------------------------------|
|-7---7---4--x------------------------------------------------------|
|-5---5---2--x------------------------------------------------------|


VERSE ONE

|---------------------------------|----------------------------------|
|---------------------------------|----------------------------------|
|---------------------------------|----------------------------------|
|-11--11---9--9-9-x---7--7----4-x-|-11--11---9--9-9-x---7--7----4-x--|
|-11--11---9--9-9-x---7--7----4-x-|-11--11---9--9-9-x---7--7----4-x--|
|-9---9----7--7-7-x---5--5----2-x-|-9---9----7--7-7-x---5--5----2-x--|
  CHORUS
 |-----------------------------------------------------------------------|
|------------------------------------------------------------------------|
|------------------------------------------------------------------------|
|4-4-4-4--4-4-4-4--4-4-4-4--4-4-4-4/7-7-7-7--7-7-7-7--7-7-7-7--7-7-7-7---|
|4-4-4-4--4-4-4-4--4-4-4-4--4-4-4-4/7-7-7-7--7-7-7-7--7-7-7-7--7-7-7-7---|
|2-2-2-2--2-2-2-2--2-2-2-2--2-2-2-2/5-5-5-5--5-5-5-5--5-5-5-5--5-5-5-5---|

|---------------------------------------------------------------------|
|---------------------------------------------------------------------|
|---------------------------------------------------------------------|
|/14-14-14-14--14-14-14-14--14-14-14-14--14-14-14-14/16-16-16-16------|
|/14-14-14-14--14-14-14-14--14-14-14-14--14-14-14-14/16-16-16-16------|
|/12-12-12-12--12-12-12-12--12-12-12-12--12-12-12-12/14-14-14-14------|

 ___________
|---------------------------------------------------------------------|
|---------------------------------------------------------------------|
|---------------------------------------------------------------------|
|-16-16-16-16--16-16-16-16--16-16-16-16-------------------------------|
|-16-16-16-16--16-16-16-16--16-16-16-16-------------------------------|
|-14-14-14-14--14-14-14-14--14-14-14-14-------------------------------|

|---------------------------------------------------------------------|
|---------------------------------------------------------------------|
|---------------------------------------------------------------------|
|4-4-4-4--4-4-4-4--4-4-4-4--4-4-4-4/7-7-7-7--7-7-7-7--7-7-7-7--7-7-7-7|
|4-4-4-4--4-4-4-4--4-4-4-4--4-4-4-4/7-7-7-7--7-7-7-7--7-7-7-7--7-7-7-7|
|2-2-2-2--2-2-2-2--2-2-2-2--2-2-2-2/5-5-5-5--5-5-5-5--5-5-5-5--5-5-5-5|

|---------------------------------------------------------------------|
|---------------------------------------------------------------------|
|---------------------------------------------------------------------|
|/14-14-14-14--14-14-14-14--14-14-14-14--14-14-14-14/11-11-11-11------|
|/14-14-14-14--14-14-14-14--14-14-14-14--14-14-14-14/11-11-11-11------|
|/12-12-12-12--12-12-12-12--12-12-12-12--12-12-12-12/9--9--9--9-------|


|---------------------------------------------------------------------|
|---------------------------------------------------------------------|
|---------------------------------------------------------------------|
|-11-11-11-11--11-11-11-11--11-11-11-11-------------------------------|
|-11-11-11-11--11-11-11-11--11-11-11-11-------------------------------|
|-9--9--9--9---9--9--9--9---9--9--9--9--------------------------------|


SOLO


|---------------------------------------------------------------------|
|---------------------------------------------------------------------|
|---------------------------------------------------------------------|
|---------------------------------------------------------------------|
|-14--12------14-14-14--14-14-14---12-----------------------14-12---12|
|------------------------------------14--14-14--14-14-12--14------14--|
|

|---------------------------------------------------------------------|
|---------------------------------------------------------------------|
|---------------------------------------------------------------------|
|-11-11-9--9-9-x--7--7--4-x--11-11-9--9-9-x--7--7--4-x--11-11-9--9-9-x|
|-11-11-9--9-9-x--7--7--4-x--11-11-9--9-9-x--7--7--4-x--11-11-9--9-9-x|
|-9--9--7--7-7-x--5--5--2-x--9--9--7--7-7-x--5--5--2-x--9--9--7--7-7-x|


|---------------------------------------------------------------------|
|---------------------------------------------------------------------|
|---------------------14-----14--16b17-17-17 17r16\-------------------|
|-------14-16--14-16------16------------------------------------------|
|-14/16---------------------------------------------------------------|
|---------------------------------------------------------------------|
|
|---------------------------------------------------------------------|
|---------------------------------------------------------------------|
|---------------------------------------------------------------------|
|-7--7--4-x---11----------11---9--9-9-x--7--7--4-x--------------------|
|-7--7--4-x---11----------11---9--9-9-x--7--7--4-x--------------------|
|-5--5--2-x---9-----------9----7--7-7-x--5--5--2-x--------------------|


VERSE TWO
|---------------------------------|----------------------------------|
|---------------------------------|----------------------------------|
|---------------------------------|----------------------------------|
|-11--11---9--9-9-x---7--7----4-x-|-11--11---9--9-9-x---7--7----4-x--|
|-11--11---9--9-9-x---7--7----4-x-|-11--11---9--9-9-x---7--7----4-x--|
|-9---9----7--7-7-x---5--5----2-x-|-9---9----7--7-7-x---5--5----2-x--|


|---------------------------------------------------------------------|
|---------------------------------------------------------------------|
|---------------------------------------------------------------------|
|4-4-4-4--4-4-4-4--4-4-4-4--4-4-4-4/7-7-7-7--7-7-7-7--7-7-7-7--7-7-7-7|
|4-4-4-4--4-4-4-4--4-4-4-4--4-4-4-4/7-7-7-7--7-7-7-7--7-7-7-7--7-7-7-7|
|2-2-2-2--2-2-2-2--2-2-2-2--2-2-2-2/5-5-5-5--5-5-5-5--5-5-5-5--5-5-5-5|

|---------------------------------------------------------------------|
|---------------------------------------------------------------------|
|---------------------------------------------------------------------|
|/14-14-14-14--14-14-14-14--14-14-14-14--14-14-14-14/16-16-16-16------|
|/14-14-14-14--14-14-14-14--14-14-14-14--14-14-14-14/16-16-16-16------|
|/12-12-12-12--12-12-12-12--12-12-12-12--12-12-12-12/14-14-14-14------|


|---------------------------------------------------------------------|
|---------------------------------------------------------------------|
|---------------------------------------------------------------------|
|-16-16-16-16--16-16-16-16--16-16-16-16-------------------------------|
|-16-16-16-16--16-16-16-16--16-16-16-16-------------------------------|
|-14-14-14-14--14-14-14-14--14-14-14-14-------------------------------|

|---------------------------------------------------------------------|
|---------------------------------------------------------------------|
|---------------------------------------------------------------------|
|4-4-4-4--4-4-4-4--4-4-4-4--4-4-4-4/7-7-7-7--7-7-7-7--7-7-7-7--7-7-7-7|
|4-4-4-4--4-4-4-4--4-4-4-4--4-4-4-4/7-7-7-7--7-7-7-7--7-7-7-7--7-7-7-7|
|2-2-2-2--2-2-2-2--2-2-2-2--2-2-2-2/5-5-5-5--5-5-5-5--5-5-5-5--5-5-5-5|
|---------------------------------------------------------------------|
|---------------------------------------------------------------------|
|---------------------------------------------------------------------|
|/14-14-14-14--14-14-14-14--14-14-14-14--14-14-14-14/11-11-11-11------|
|/14-14-14-14--14-14-14-14--14-14-14-14--14-14-14-14/11-11-11-11------|
|/12-12-12-12--12-12-12-12--12-12-12-12--12-12-12-12/9--9--9--9-------|


|---------------------------------------------------------------------|
|---------------------------------------------------------------------|
|---------------------------------------------------------------------|
|-11-11-11-11--11-11-11-11--11-11-11-11\7-7-7-7--7-7-7-7--7-7-7-7-----|
|-11-11-11-11--11-11-11-11--11-11-11-11\7-7-7-7--7-7-7-7--7-7-7-7-----|
|-9--9--9--9---9--9--9--9---9--9--9--9-\5-5-5-5--5-5-5-5--5-5-5-5-----|


|---------------------------------------------------------------------|
|---------------------------------------------------------------------|
|---------9-9-9-9--9-9-9-9--9-9-9-9--9-9-9-9/11-11-11-11--11-11-11-11-|
|-7-7-7-7-9-9-9-9--9-9-9-9--9-9-9-9--9-9-9-9/11-11-11-11--11-11-11-11-|
|-7-7-7-7-7-7-7-7--7-7-7-7--7-7-7-7--7-7-7-7/9--9--9--9---9--9--9--9--|
|-5-5-5-5-------------------------------------------------------------|


|---------------------------------------------------------------------|
|---------------------------------------------------------------------|
|-11-11-11-11--11-11-11-11--11-11-11-11--11-11-11-11--11-11-11-11-----|
|-11-11-11-11--11-11-11-11--11-11-11-11--11-11-11-11--11-11-11-11-----|
|-9--9--9--9---9--9--9--9---9--9--9--9---9--9--9--9---9--9--9--9------|
|---------------------------------------------------------------------|


|---------------------------------------------------------------------|
|---------------------------------------------------------------------|
|11-11-11-11------------------------------------9-9-9-9--9-9-9-9------|
|11-11-11-11-7-7-7-7--7-7-7-7--7-7-7-7--7-7-7-7-9-9-9-9--9-9-9-9------|
|9--9--9--9--7-7-7-7--7-7-7-7--7-7-7-7--7-7-7-7-7-7-7-7--7-7-7-7------|
|------------5-5-5-5--5-5-5-5--5-5-5-5--5-5-5-5-----------------------|


|---------------------------------------------------------------------|
|---------------------------------------------------------------------|
|-9-9-9-9--9-9-9-9----------------------------------------------------|
|-9-9-9-9--9-9-9-9----------------------------------------------------|
|-7-7-7-7--7-7-7-7----------------------------------------------------|
|---------------------------------------------------------------------|


BRIDGE

|---------------------------------------------------------------------|
|---------------------------------------------------------------------|
|---------------------------------------------------------------------|
|---4-------4-------4-------4-------4-------4-------4-------4-------4-|
|---4-------4-------4-------4-------4-------4-------4-------4-------4-|
|-0-2-----0-2-----0-2-----0-2-----0-2-----0-2-----0-2-----0-2-----0-2-|
|


|---------------------------------------------------------------------|
|---------------------------------------------------------------------|
|---------------------------------------------------------------------|
|---4-----4-----4-----4------4------4--/16-16-16-16--16-16-16-16\14-14|
|---4-----4-----4-----4------4------4--/16-16-16-16--16-16-16-16\14-14|
|-0-2---0-2---0-2---0-2----0-2----0-2--/14-14-14-14--14-14-14-14\12-12|
|
|-----------------------------------------------------------------------|
|-----------------------------------------------------------------------|
|-----------------------------------------------------------------------|
|--------------/16-16-16-16--16-16-16-16\14-14--------------------------|
|--------------/16-16-16-16--16-16-16-16\14-14--------------------------|
|--------------/14-14-14-14--14-14-14-14\12-12--------------------------|

|---------------------------------------------------------------------|
|---------------------------------------------------------------------|
|---------------------------------------------------------------------|
|-14-14--14-14-14-14/16-----------------------------------------------|
|-14-14--14-14-14-14/16-----------------------------------------------|
|-12-12--12-12-12-12/14-----------------------------------------------|
|
|---------------------------------------------------------------------|
|---------------------------------------------------------------------|
|---------------------------------------------------------------------|
|-14-14--14-14-14-14/16-----------------------------------------------|
|-14-14--14-14-14-14/16-----------------------------------------------|
|-12-12--12-12-12-12/14-----------------------------------------------|


CHORUS THREE

|---------------------------------------------------------------------|
|---------------------------------------------------------------------|
|---------------------------------------------------------------------|
|-----------------------------------7-7-7-7--7-7-7-7--7-7-7-7--7-7-7-7|
|-----------------------------------7-7-7-7--7-7-7-7--7-7-7-7--7-7-7-7|
|-----------------------------------5-5-5-5--5-5-5-5--5-5-5-5--5-5-5-5|


|---------------------------------------------------------------------|
|---------------------------------------------------------------------|
|---------------------------------------------------------------------|
|/14-14-14-14--14-14-14-14--14-14-14-14--14-14-14-14/16-16-16-16------|
|/14-14-14-14--14-14-14-14--14-14-14-14--14-14-14-14/16-16-16-16------|
|/12-12-12-12--12-12-12-12--12-12-12-12--12-12-12-12/14-14-14-14------|

 ___________
|---------------------------------------------------------------------|
|---------------------------------------------------------------------|
|---------------------------------------------------------------------|
|-16-16-16-16--16-16-16-16--16-16-16-16-------------------------------|
|-16-16-16-16--16-16-16-16--16-16-16-16-------------------------------|
|-14-14-14-14--14-14-14-14--14-14-14-14-------------------------------|


|---------------------------------------------------------------------|
|---------------------------------------------------------------------|
|---------------------------------------------------------------------|
|4-4-4-4--4-4-4-4--4-4-4-4--4-4-4-4/7-7-7-7--7-7-7-7--7-7-7-7--7-7-7-7|
|4-4-4-4--4-4-4-4--4-4-4-4--4-4-4-4/7-7-7-7--7-7-7-7--7-7-7-7--7-7-7-7|
|2-2-2-2--2-2-2-2--2-2-2-2--2-2-2-2/5-5-5-5--5-5-5-5--5-5-5-5--5-5-5-5|


|---------------------------------------------------------------------|
|---------------------------------------------------------------------|
|---------------------------------------------------------------------|
|/14-14-14-14--14-14-14-14--14-14-14-14--14-14-14-14/11-11-11-11------|
|/14-14-14-14--14-14-14-14--14-14-14-14--14-14-14-14/11-11-11-11------|
|/12-12-12-12--12-12-12-12--12-12-12-12--12-12-12-12/9--9--9--9-------|

|---------------------------------------------------------------------|
|---------------------------------------------------------------------|
|---------------------------------------------------------------------|
|-11-11-11-11--11-11-11-11--11-11-11-11--4----------------------------|
|-11-11-11-11--11-11-11-11--11-11-11-11--4----------------------------|
|-9--9--9--9---9--9--9--9---9--9--9--9---2----------------------------|

There it is lads enjoy.
Remember if you think there is something wrong with it give me a shout good luck!

            
            
Suggest correction
Creating personal tab
Creating personal tab
You can edit any tab online and save it as your Personal.

You can edit, replace or remove any tab part or add personal notes – all changes will be seen only by you.

Personal tabs can be accessed anytime from any device, even offline.
Learn more »
Give kudos to tab author, rate the tab!
1 2 3 4 5
comments
print report bad tab
3 comments total.
0 reply
matti243 10 Dec 23, 2006 12:04 AM

wrong.
for starters most of the "0"'s you have tabbed are mute notes
ill leave the rest to everyone else

0 reply
matti243 10 Dec 23, 2006 12:04 AM

some of it is good though

0 reply
bobbybunn 31 Dec 20, 2007 05:18 AM

the second solo is right but i cant work out the second solo (timing)

guest
You may want to rate the tab now too:
select rating
Wanna post a correction for this tab? Suggest correction