Oops, an error
Loading. Please wait.
We have an official My Propeller tab made by UG professional guitarists. Check out the tab »
×

My Propeller tab

version 1
version 1

Whole song

  • Because I've learned by ear, it's a version close ... Show more
  • This is the live version from reading 2014, i trie... Show more

Interactive

18,052 views 9 this week
no commentswrite comment
1 2 3 4 5
x 5
add to favorites
×
Save as Personal and add changes to this tab that will be seen only by you. Learn more ›
×
You can save this tab as Personal to edit and correct it or add notes. All changes will be seen only by you. Learn more »
launch autoscroll
font size
0
reset
how to read this tab
guitar tuner
backing track
0:00
0:00
edit
Autoscroll
slow
fast
+/-
esc
set tempo
stop
Author
Difficulty
Arctic Monkeys - My Propeller
Album: Humbug

INTRO:

e|--------------------------------|
B|--------------------------------|
G|--------------------------------|
D|9-9-9-9-9-9-9-9-9---------------|
A|7-7-7-7-7-7-7-7-7---------------|
E|0-0-0-0-0-0-0-0-0---------------|

verse:

e|-------------------------------------------------------------------------|
B|-------------------------------------------------------------------------|
G|-------------------------------------------------------------------------|
D|-------------------------------------------------------------------------|
A|---------2-----0----------0------2---------------------------------------|
E|-0--0------0-----3--3-------3------3--0----------------------------------|


and the "coax me out my love" bit

is

e|-----------------------------------------------------------------------|
B|-----------------------------------------------------------------------|
G|-----------------------------------------------------------------------|
D|-----------------------------------------------------------------------|
A|3-----------3-------2---0-------------------------------0------2-------|
E|----------------------------3---2-----------2-------3----------------1-|

Outro Chords:

C Am

That's all I worked out so far :/.. but the album hasnt been released yet, got promo 
though, not very good at working tabs out by myself

            
            
Suggest correction
Creating personal tab
Creating personal tab
You can edit any tab online and save it as your Personal.

You can edit, replace or remove any tab part or add personal notes – all changes will be seen only by you.

Personal tabs can be accessed anytime from any device, even offline.
Learn more »
comments
print report bad tab
guest
You may want to rate the tab now too:
select rating
Wanna post a correction for this tab? Suggest correction