Oops, an error
Loading. Please wait.
We have an official No Buses tab made by UG professional guitarists. Check out the tab »
×
2,321 views 1 this week
no commentswrite comment
1 2 3 4 5
3 more votes to show rating
add to favorites
×
Save as Personal and add changes to this tab that will be seen only by you. Learn more ›
×
You can save this tab as Personal to edit and correct it or add notes. All changes will be seen only by you. Learn more »
launch autoscroll
font size
0
reset
guitar tuner
edit
Autoscroll
slow
fast
+/-
esc
set tempo
stop
Author
This is my first song tabbed so, if you find anything wrong please let me know, o and 
i know the last part it´s not done, but i´ll end it up soon, enjoy :D

G|--------------------|
D|--------------------|
A|--------------------|(And Just cause everybody´s doing it...)
E|5-5-5~------4-4-4~--|

   (Lady Where have your love gone, he was the antiseptic to the sore)
G|----------------------------------------------------------------|
D|------6----9-7-6-----7--6----6-9-7------------------------------|
A|9--7-----7--------7--------7------------------------------------|
E|----------------------------------------------------------------|

  (To hold you By the hand..)to (...Just once more)
G|----------------------------------------------------------------|
D|---7--9--6--9-----9----9----------------------------------------|
A|7--------------9------------------------------------------------|
E|----------------------------------------------------------------|

   (Lets go Down ...)
G|----------------------------------------------------------------|
D|----------------------------------------------------------------|
A|------------------44-4-44-4-/99-9-99-9--------------------------|
E|55-5-55-5-44-4-44-----------------------------------------------|

   (And Just Cuase Everybody´s Doin IT....)
G|----------------------------------------------------------------|
D|----------------------------------------------------------------|
A|----------------------------------------------------------------|
E|5-5-5~----4-4-4~------------------------------------------------|

       (her eyes went down And)
G|----------------------------------|
D|----------------------------------|
A|4-4-4-4-4-4-4---------------------|
E|--------------4-4-4-4-4-4-4-------|

 (And Cut You Up)(Theres nothing like a Dirty look from)
G|-------------------------------------------------------|
D|--------------------------11---------------------------|
A|11-10-99999999/11 11 11 11-----------------------------|
E|-------------------------------------------------------|

           (The one you want)
G|-------------------------------|
D|-------------------------------|
A|4-4-4-4-4-4-4------------------|
E|--------------4-4-4-4-4-4-4----|

 (The one you´ve lost)
G|-------------------------------------------------------|
D|--------------------------11---------------------------|
A|11-10-99999999/11 11 11 11------9----------------------|
E|-------------------------------------------------------|

  (...Goal..)              (Thats Why you....)
G|-------------------------------------------------------|
D|----------6-66---6-9-7---------7-77--------------------|
A|9-99-7-77------7---------7--77-------------------------|
E|-------------------------------------------------------|

    I´ll update the rest of the tab when i figure it out, enjoy it!!

            
            
Suggest correction
Creating personal tab
Creating personal tab
You can edit any tab online and save it as your Personal.

You can edit, replace or remove any tab part or add personal notes – all changes will be seen only by you.

Personal tabs can be accessed anytime from any device, even offline.
Learn more »
Give kudos to tab author, rate the tab!
1 2 3 4 5
comments
print report bad tab
guest
You may want to rate the tab now too:
select rating
Wanna post a correction for this tab? Suggest correction