Oops, an error
Loading. Please wait.
We have an official One For The Road tab made by UG professional guitarists. Check out the tab »
×
31,563 views 66 this week
5 commentsread comments
1 2 3 4 5
x 21
add to favorites
×
Save as Personal and add changes to this tab that will be seen only by you. Learn more ›
×
You can save this tab as Personal to edit and correct it or add notes. All changes will be seen only by you. Learn more »
launch autoscroll
font size
0
reset
guitar tuner
edit
Autoscroll
slow
fast
+/-
esc
set tempo
stop
Author
Difficulty
Tuning: Standard

[Intro]
G|-----------------|
D|-----------------|
A|--3-2-3-2-3-2----|
E|-------------5-3-|

[Verse]
G|------------------|
D|------------------| (x3)
A|------------------|
E|-0-3-5-7--8-3-7-5-|

G|---------------------|
D|---------------------|
A|---------------------| 
E|-0-3-5-7--8-3-7-5-5-7|

G|------------------|
D|------------------| (x3)
A|------------------|
E|-0-3-5-7--8-3-7-5-|

G|---------------------|
D|---------------------|
A|---------------------| 
E|-0-3-5-7--8-3-7-5-5-7|

[Chorus]
G|------------------|
D|------------------| 
A|------------------|
E|-0-3-5-7--8-3-7-5-|

G|---------------------|
D|---------------------|
A|---------------------| 
E|-0-3-5-7--8-3-7-5-5-7|

G|--------------------------------|
D|--------------------------------|
A|------------------2-0-----------|
E|-0-3-5-7--8-3-7-5----3-2-0-3-5-7|

[Instrumental]
G|-----------------|
D|-----------------|
A|--3-2-3-2-3-2----|
E|-------------5-3-|

[Verse]
G|------------------|
D|------------------| 
A|------------------|
E|-0-3-5-7--8-3-7-5-|

G|---------------------|
D|---------------------|
A|---------------------| 
E|-0-3-5-7--8-3-7-5-5-7|

G|------------------|
D|------------------| 
A|------------------|
E|-0-3-5-7--8-3-7-5-|

G|---------------------|
D|---------------------|
A|---------------------| 
E|-0-3-5-7--8-3-7-5-5-7|

[Chorus]
G|------------------|
D|------------------| 
A|------------------|
E|-0-3-5-7--8-3-7-5-|

G|---------------------|
D|---------------------|
A|---------------------| 
E|-0-3-5-7--8-3-7-5-5-7|

G|--------------------------------|
D|--------------------------------|
A|------------------2-0-----------|
E|-0-3-5-7--8-3-7-5----3-2-0-3-5-7|

[Bridge]
G|--------------------|
D|----------------5---|
A|-3-3-3-3-5-7-7-7-2-5|
E|------3-------------|

G|---------------------|
D|---------------------| 
A|-3-3-3-3-5-2-2-2-0---|
E|------3-----------3-2|

(Matt Helders + Josh Homme "one for the road" falsetto moment)
(the bass comes in the third "one for the road" part, 2:30)

G|-------------------|
D|-------12-10-9-----|
A|---9-10-------12-10|
E|-12----------------|

G|--------------------|
D|--------------------|
A|------5-3-2--------2|
E|-0-2-3-----5-3-5-3--|

[Solo/Ending]
(nearly the same thing as the bridge)
G|--------------------|
D|----------------5---|
A|-3-3-3-3-5-7-7-7-2-5|  (x3)
E|------3-------7-----|

G|----------------|
D|----------------|
A|-3-3-3-3-5-7-7-7|  
E|------3-------7-|

G|--------------------|
D|----------------5---|
A|-3-3-3-3-5-7-7-7-2-5|  (x3)
E|------3-------7-----|

G|---------------------|
D|---------------------| 
A|-3-3-3-3-5-2-2-2-0---|
E|------3-----------3-2|

            
            
Suggest correction
Creating personal tab
Creating personal tab
You can edit any tab online and save it as your Personal.

You can edit, replace or remove any tab part or add personal notes – all changes will be seen only by you.

Personal tabs can be accessed anytime from any device, even offline.
Learn more »
comments
print report bad tab
5 comments total. Showing first comments.
0 reply
quaol 10 Sep 07, 2013 03:45 AM

Good, 100% accurate tab, but there is two plus note in the chorus:
Btw thank you! ;)
Chorus
G|----------------------|
D|----------------------|
A|----------------------|
E|-0-3-5-7--5-7-8-3-7-5-|

G|-------------------------|
D|-------------------------|
A|-------------------------|
E|-0-3-5-7--5-7-8-3-7-5-5-7|

G|------------------------------------|
D|------------------------------------|
A|----------------------2-0-----------|
E|-0-3-5-7--5-7-8-3-7-5----3-2-0-3-5-7|

0 reply
TSouza_ 51 Sep 07, 2013 06:53 AM

ha! thanks bro, while I was doing this tab I actually thought the other two notes were just jamie's guitar doing a palm mute rather than the bass... I'll correct this as soon as I can :)

0 reply
quaol 10 Sep 07, 2013 01:14 PM

made this today, with this tab! big thank you one more time! :D
http://www.youtube.com/watch?v=_SRTTUiZCFg

guest
You may want to rate the tab now too:
select rating
Wanna post a correction for this tab? Suggest correction