Oops, an error
Loading. Please wait.
We have an official Only Ones Who Know tab made by UG professional guitarists. Check out the tab »
×
1,421 views 3 this week
1 commentread comment
1 2 3 4 5
x 3
add to favorites
×
Save as Personal and add changes to this tab that will be seen only by you. Learn more ›
×
You can save this tab as Personal to edit and correct it or add notes. All changes will be seen only by you. Learn more »
launch autoscroll
font size
0
reset
guitar tuner
edit
Autoscroll
slow
fast
+/-
esc
set tempo
stop
Author
Difficulty
Artist: Arctic Monkeys

Album: Favourite Worst Nightmare



All tabs by Pedro Zappa
-----------------------------------------------------------------------------
-----------------------------------------------------------------------------


6. Only Ones Who Know 


Verse 1

(wait)

Chorus 1

G||--------------------|--------------------|
D||--------------------|--------------------|
A||--------------------|--------------------|
E||-6------------------|-6------------------|
    i    i    i    i     i    i    i    i
G||--------------------|--------------------|
D||--------------------|--------------------|
A||--------------------|-5------------------|
E||-5------------------|--------------------|
    i    i    i    i     i    i    i    i
G||--------------------|--------------------|
D||--------------------|--------------------|
A||--------------------|--------------------|
E||-3------------------|-6------------------|
    i    i    i    i     i    i    i    i

Verse 2

G||--------------------|--------------------|
D||--------------------|--------------------|
A||-----------4--------|-5---------3--------|
E||-1------------------|--------------------|
    i    i    i    i     i    i    i    i
G||--------------------|--------------------|
D||--------------------|--------------------|
A||-1------------------|-----------4--------|
E||-----------3--------|-1------------------|
    i    i    i    i     i    i    i    i
G||--------------------|--------------------|
D||--------------------|--------------------|
A||-5---------3--------|-1---------0--------|
E||--------------------|--------------------|
    i    i    i    i     i    i    i    i

G||--------------------||
D||--------------------||
A||--------------------||
E||-3------------------||
    i    i    i    i  

Chorus 2

G||--------------------|--------------------|
D||--------------------|--------------------|
A||--------------------|--------------------|
E||-6------------------|-6------------------|
    i    i    i    i     i    i    i    i
G||--------------------|--------------------|
D||--------------------|--------------------|
A||--------------------|-5------------------|
E||-5------------------|--------------------|
    i    i    i    i     i    i    i    i
G||--------------------|--------------------|
D||--------------------|--------------------|
A||--------------------|--------------------|
E||-3------------------|-6------------------|
    i    i    i    i     i    i    i    i

G||--------------------|--------------------|--------------------|
D||--------------------|--------------------|--------------------|
A||-8---------4--------|-5---------3--------|-1------------------|
E||--------------------|--------------------|-----------5--------|
    i    i    i    i     i    i    i    i     i    i    i    i

G||--------------------||  x4
D||--------------------||
A||--------------------||
E||-3---33----3---33---||
    i    i    i    i 
G||--------------------||
D||--------------------||
A||--------------------||
E||-1------------------||
    i    i    i    i  


Tab by Pedro Zappa
-----------------------------------------------------------------------------
-----------------------------------------------------------------------------

            
            
Suggest correction
Creating personal tab
Creating personal tab
You can edit any tab online and save it as your Personal.

You can edit, replace or remove any tab part or add personal notes – all changes will be seen only by you.

Personal tabs can be accessed anytime from any device, even offline.
Learn more »
Give kudos to tab author, rate the tab!
1 2 3 4 5
comments
print report bad tab
1 comment total.
0 reply
Topas_Bass 184 Sep 25, 2015 02:28 PM

Really great tab!
I'm pretty sure it's 100% correct...
Great job man! :)

guest
You may want to rate the tab now too:
select rating
Wanna post a correction for this tab? Suggest correction