Oops, an error
Loading. Please wait.
We have an official Only Ones Who Know tab made by UG professional guitarists. Check out the tab »
×
5,488 views 3 this week
no commentswrite comment
1 2 3 4 5
x 4
add to favorites
×
Save as Personal and add changes to this tab that will be seen only by you. Learn more ›
×
You can save this tab as Personal to edit and correct it or add notes. All changes will be seen only by you. Learn more »
launch autoscroll
font size
0
reset
guitar tuner
edit
Autoscroll
slow
fast
+/-
esc
set tempo
stop
Difficulty
Artist: arctic monkeys
Song: Only one who knows
Tabbed by robbo

Not sure if its how they play it but works for me
It’s a note per chord apart from the last bit of the outro where the guitarist plays 3 
over the 8 sets of 10th
Intro
G|------------------------------------------------------|
D|------------------------------------------------------|
A|--8---0---5---8---1---10---8---0—-5---8---1---10---8--|
E|------------------------------------------------------|

Verse1

G|------------------------------------------------------|
D|------------------------------------------------------|
A|--8---0---5---8---1---10---8---0---5---8--1---10---8--|
E|------------------------------------------------------|

Chorus1
-------------------------------|
G|-----------------------------|
D|-----------------------------|
A|-1---1)---0---5---10---1)----|
E|-----------------------------|

Verse

Chorus

Outro
G|---------------------------------------------------------|
D|---------------------------------------------------------|
A|--8---0---5---8---1---10---8---0—-5---8---1---10--10-10--|
E|---------------------------------------------------------|


G|---------------------------------------------------------------|
D|---------------------------------------------------------------|
A|-10--10-10--10--10-10--10--10-10--10--10-10--10--10-10---------|
E|---------------------------------------------------------------|


G|---------------------------|
D|---------------------------|
A|-10--10-10—-10--10-10---8--|
E|---------------------------|

) Bend the note

            
            
Suggest correction
Creating personal tab
Creating personal tab
You can edit any tab online and save it as your Personal.

You can edit, replace or remove any tab part or add personal notes – all changes will be seen only by you.

Personal tabs can be accessed anytime from any device, even offline.
Learn more »
comments
print report bad tab
guest
Wanna post a correction for this tab? Suggest correction