Oops, an error
Loading. Please wait.

Pretty Visitors tab

version 2
version 2

Whole song

Interactive

50,040 views 12 this week
3 commentsread comments
1 2 3 4 5
x 17
add to favorites
×
Save as Personal and add changes to this tab that will be seen only by you. Learn more ›
×
You can save this tab as Personal to edit and correct it or add notes. All changes will be seen only by you. Learn more »
launch autoscroll
font size
0
reset
how to read this tab
guitar tuner
backing track
0:00
0:00
edit
Autoscroll
slow
fast
+/-
esc
set tempo
stop
Author
Tabbers playing skills
intermediate ++
(I think it's played like this but with an octave pedal to make it sound an octave lower 
and that Jamie Cook doesn't tune down to Drop D when it's played live, but it should 
work well anyway in case you don't want to tune down.)

[Verse]
e|---------------------------------------------------------------|
B|---------------------------------------------------------------|
G|---------------------------------------------------------------| x2
D|---------------------------------------------------------------|
A|9-9-9-9-5-5-5-5-9----------------------------------------------|
E|---------------------------------------------------------------|

(this here and the other riffs without the pedal)
e|---------------------------------------------------------------|
B|---------------------------------------------------------------|
G|---------------------------------------------------------------|
D|---------------------------------------------------------------| 
A|2-2-2-----------2-2-2-2-------0--------------------------------|
E|--------2---2-2---------5---5-0--------------------------------|

(then octave pedal riff x2)

(after that this riff changes slightly)
e|---------------------------------------------------------------|
B|---------------------------------------------------------------|
G|---------------------------------------------------------------|
D|---------------------------------------------------------------| 
A|2-2-2-2-------2---2-2-2-0-0-0-0--------------------------------|
E|--------2---2--------------------------------------------------|

[Pre-Chorus]
e|---------------------------------------------------------------|
B|---------------------------------------------------------------|
G|---------------------------------------------------------------|
D|---------------------------------------------------------------|
A|---------------------------------------------------------------|
E|2~~~~~~~--------2-------------2~~~~~~~-------2-----------------|

e|---------------------------------------------------------------|
B|---------------------------------------------------------------|
G|---------------------------------------------------------------|
D|---------------------------------------------------------------|
A|--------4~~~~~~--------5~~~~~---------4~~~~~--------5~~~~~~~---|
E|2~~~~~~~--------2~~~~~~--------2~~~~~~~-------2~~~~~~----------|

[Chorus]
(gtr. 1)
e|---------------------------------------------------------------|
B|---------------------------------------------------------------|
G|---------------------------------------------------------------|
D|---------------------------------------------------------------| x4
A|-----------------------------4--5------5-------5---------------|
E|2-------2-------2-------2--5-------------------------3b(4)-----|

(CHORUS 2 + 3)

[guitar 1]
(stays the same)

[guitar 2]
(roughly)
e|9-------10-------9-------10------10------9-------10------10b---|
B|----7--------7-------7-------7-------7-------7-------7---------|
G|---------------------------------------------------------------|
D|---------------------------------------------------------------|
A|---------------------------------------------------------------|
E|---------------------------------------------------------------|

e|---------9---------------9---------------10-------------10b(11)|
B|7----------------7---------------7----------------7------------|
G|---------------------------------------------------------------|
D|---------------------------------------------------------------|
A|---------------------------------------------------------------|
E|---------------------------------------------------------------|

[Outro]
(gtr. 1)
e|---------------------------------------------------------------|
B|---------------------------------------------------------------|
G|---------------------------------------------------------------|
D|---------------------------------------------------------------|
A|---------------------------------------------------------------|
E|2--------------------------------------------------------------|

[gtr. 2]
e|12b(14)--------------------------------------------------------|
B|---------------------------------------------------------------|
G|---------------------------------------------------------------|
D|---------------------------------------------------------------|
A|---------------------------------------------------------------|
E|---------------------------------------------------------------|

[Bridge]
(gtr. 2 while the organ is playing)
e|9---/-/-/---14-----------------(10)-r-9-----6------------------|
B|---------------------------------------------------------------|
G|---------------------------------------------------------------|
D|---------------------------------------------------------------|  x2
A|---------------------------------------------------------------|
E|---------------------------------------------------------------|

[gtr. 1]
e|---------------------------------------------------------------|
B|---------------------------------------------------------------|
G|---------------------------------------------------------------|
D|------------------------4-----3--------3-----4-----------------|
A|--------5-------4-----5---------5--------------4---------------|
E|2--------------------------------------------------------------|

(gtr. 1 continues this riff throughout the solo)

[Solo]
(played with slide)
(place the slide not between the frets but over them to get the best tone)

[gtr. 2]
e|---------------------------------------------------------------|
B|---------------------------------------------------------------|
G|---------------------------------------------------------------|
D|-----------------------------------------------6--/---7--------|
A|--------9\--------------9\-------------9-\-5-------------------|
E|---------------------------------------------------------------|

e|---------------------------------------------------------------|
B|-------------------------------------------------------[13b14]-|
G|-------------------------11-\-10-----------10-/-11-------------|
D|--------12\------11---12-------------12------------11\\\-------| x2
A|9--------------------------------------------------------------|
E|---------------------------------------------------------------|

(the bend in brackets at the end is only played at the second time)

[Verse]

(while bass is playing)
i - index finger
r - ring finger

[Harmonics]
e|---------------------------------------------------------------|
B|---------------------------------------------------------------|
G|---------------------------------------------------------------|
D|4*4*4*4*4*4*4*4*-----------------------------------------------|
A|4*4*4*4*4*4*4*4*-----------------------------------------------|
E|2*2*2*2*2*2*2*2*-----------------------------------------------|

  d u d u d u d u   u d u d u d u
e|--------------------------------|
B|--------------------------------|
G|--------------------------------|
D|--------------------------------|
A|--------------5-----------------|
E|2-2-2-2-2-2-2-----2-2-2-2-2-2-2-|

[last bar before chorus:]
  d u d u d u d u     d   d   d
e|--------------------------------|
B|--------------------------------|
G|--------------------------------|
D|--------------------------------|
A|--------------5-----5---5-------|
E|2-2-2-2-2-2-2--------------3b(4)|


************************************

| ~    Vibrato
| b    Bend
| (n)  Ghost note
| r    Release
| /    Slide up
| \    Slide down
| *    Natural harmonic

************************************

            
            
Suggest correction
Creating personal tab
Creating personal tab
You can edit any tab online and save it as your Personal.

You can edit, replace or remove any tab part or add personal notes – all changes will be seen only by you.

Personal tabs can be accessed anytime from any device, even offline.
Learn more »
comments
print report bad tab
3 comments total.
+2 reply
Todd 93 10 Sep 05, 2009 07:32 AM

Good job man.

0 reply
libertines4ever 658 Sep 11, 2009 08:00 AM, edited on January 17 2014, 04:22 pm

---------------------------------------------------------------------------------------------------------------------------------------------

0 reply
libertines4ever 658 Jan 10, 2010 12:43 PM

thx todd93

guest
You may want to rate the tab now too:
select rating
Wanna post a correction for this tab? Suggest correction