Oops, an error
Loading. Please wait.

Put Me In A Terror Pocket tab

version 2
version 2

Whole song

Interactive

363 views 6 this week
1 commentread comment
1 2 3 4 5
2 more votes to show rating
add to favorites
×
Save as Personal and add changes to this tab that will be seen only by you. Learn more ›
×
You can save this tab as Personal to edit and correct it or add notes. All changes will be seen only by you. Learn more »
launch autoscroll
font size
0
reset
how to read this tab
guitar tuner
edit
Autoscroll
slow
fast
+/-
esc
set tempo
stop
Author
Difficulty
Intro (played through most of the song):
|-------2-5-4-3-2------------7-10-7-------7-10-9-7-----5-4-3-2-|
|-----3--------------------8------------8----------------------|
|-3-4------------------8-9----------8-9------------------------|
|--------------------------------------------------------------|
|--------------------------------------------------------------|
|-----------------(x6)-----------------------------(x2)--------|

Verse 1:
|-----------------------------------------------------------------------|
|-----------------------------------------------------------------------|
|--------------------4~-------------------------------------------------|
|-4--4-4--5-5-5-5-4--4~----4-4-4-4-4-4-4-4-4--------5-5-5-5-5-5-5-5-5-5-|
|-4--4-4--5-5-5-5-4--2~----2-2-2-2-2-2-2-2-2(etc.)--3-3-3-3-3-3-3-3-3-3-|
|-2--2-2--3-3-3-3-2-----------------------------------------------------|

Some parts in the verse repeat, so just replay them when they arrive in the song.
Go back to the intro then play this.
Chorus:
|------------------------------------------------|
|------------------------------------------------|
|------------------------------------------------|
|------------------------------------------------|
|-------------------------7-10-9-7-10-9-7-9-(x2)-|
|-7-10-9-7-10-9-7-9-(x4)-------------------------|

This repeats about 5 times.

The first bit of the verse plays then this until "I am the conductor..."
Verse 2:
|----------------|
|----------------|
|----------------|
|-5--5-5--9--9-9-|
|-5--5-5--9--9-9-|
|-3--3-3--7--7-7-|

It repeats the intro, with a slight adjustment:

|-------2-7-6-5-6------------2-7-6-5-6-5-4-5-4-3-4-3-2-3-2-1-0-|
|-----3--------------------3-----------------------------------|
|-3-4------------------3-4-------------------------------------|
|--------------------------------------------------------------|
|--------------------------------------------------------------|
|-----------------(x8)-----------------------------------------|

Verse 1 and 2 play together and then the song finishes.
Please rate if it was useful and comment to suggest how it can be improved.

            
            
Suggest correction
Creating personal tab
Creating personal tab
You can edit any tab online and save it as your Personal.

You can edit, replace or remove any tab part or add personal notes – all changes will be seen only by you.

Personal tabs can be accessed anytime from any device, even offline.
Learn more »
Give kudos to tab author, rate the tab!
1 2 3 4 5
comments
print report bad tab
1 comment total.
0 reply
thend322 10 Nov 18, 2017 01:41 PM

fuckin love this sing thanks for the tab my dude

guest
You may want to rate the tab now too:
select rating
Wanna post a correction for this tab? Suggest correction